ISO-10303-21;
HEADER;
FILE_DESCRIPTION (( 'STEP AP203' ),
    '1' );
FILE_NAME ('Web Model 48413_48418.step',
    '2017-04-10T17:01:42',
    ( '' ),
    ( '' ),
    'SwSTEP 2.0',
    'SolidWorks 2016',
    '' );
FILE_SCHEMA (( 'CONFIG_CONTROL_DESIGN' ));
ENDSEC;

DATA;
#1 = VECTOR ( 'NONE', #42, 1000.000000000000000 ) ;
#2 = LOCAL_TIME ( 13, 1, 42.00000000000000000, #104 ) ;
#3 = DIRECTION ( 'NONE',  ( 0.0000000000000000000, 0.0000000000000000000, 1.000000000000000000 ) ) ;
#4 = CC_DESIGN_APPROVAL ( #233, ( #218 ) ) ;
#5 = SHAPE_DEFINITION_REPRESENTATION ( #155, #198 ) ;
#6 = CARTESIAN_POINT ( 'NONE',  ( 25.00000000000000400, 25.00000000000000000, -1.500000000000000000 ) ) ;
#7 = LOCAL_TIME ( 13, 1, 42.00000000000000000, #40 ) ;
#8 = LINE ( 'NONE', #49, #216 ) ;
#9 = PERSON_AND_ORGANIZATION_ROLE ( 'creator' ) ;
#10 = DATE_AND_TIME ( #126, #138 ) ;
#11 = DIRECTION ( 'NONE',  ( 0.0000000000000000000, -0.0000000000000000000, -1.000000000000000000 ) ) ;
#12 = APPROVAL_ROLE ( '' ) ;
#13 = CARTESIAN_POINT ( 'NONE',  ( -25.00000000000000000, 25.00000000000000000, 1.500000000000000000 ) ) ;
#14 = PERSON_AND_ORGANIZATION_ROLE ( 'design_owner' ) ;
#15 = DIRECTION ( 'NONE',  ( 0.0000000000000000000, 1.000000000000000000, 0.0000000000000000000 ) ) ;
#16 = DIRECTION ( 'NONE',  ( -1.000000000000000000, -0.0000000000000000000, -0.0000000000000000000 ) ) ;
#17 = VECTOR ( 'NONE', #120, 1000.000000000000000 ) ;
#18 = CALENDAR_DATE ( 2017, 10, 4 ) ;
#19 = PERSON_AND_ORGANIZATION ( #158, #85 ) ;
#20 = LINE ( 'NONE', #94, #21 ) ;
#21 = VECTOR ( 'NONE', #72, 1000.000000000000000 ) ;
#22 = ADVANCED_FACE ( 'NONE', ( #31 ), #124, .F. ) ;
#23 = CC_DESIGN_PERSON_AND_ORGANIZATION_ASSIGNMENT ( #122, #179, ( #218 ) ) ;
#24 = CARTESIAN_POINT ( 'NONE',  ( 25.00000000000000400, 25.00000000000000000, 1.500000000000000000 ) ) ;
#25 = LINE ( 'NONE', #202, #1 ) ;
#26 = LINE ( 'NONE', #201, #226 ) ;
#27 = APPLICATION_CONTEXT ( 'configuration controlled 3d designs of mechanical parts and assemblies' ) ;
#28 = AXIS2_PLACEMENT_3D ( 'NONE', #96, #183, #11 ) ;
#29 = APPROVAL_STATUS ( 'not_yet_approved' ) ;
#30 = LINE ( 'NONE', #236, #17 ) ;
#31 = FACE_OUTER_BOUND ( 'NONE', #221, .T. ) ;
#32 = CARTESIAN_POINT ( 'NONE',  ( -25.00000000000000000, 25.00000000000000000, 1.500000000000000000 ) ) ;
#33 = ADVANCED_FACE ( 'NONE', ( #105 ), #43, .F. ) ;
#34 = CARTESIAN_POINT ( 'NONE',  ( -25.00000000000000000, 25.00000000000000000, 1.500000000000000000 ) ) ;
#35 = COORDINATED_UNIVERSAL_TIME_OFFSET ( 5, 0, .BEHIND. ) ;
#36 = CC_DESIGN_DATE_AND_TIME_ASSIGNMENT ( #110, #156, ( #218 ) ) ;
#37 = ORIENTED_EDGE ( 'NONE', *, *, #214, .F. ) ;
#38 = ORIENTED_EDGE ( 'NONE', *, *, #129, .T. ) ;
#39 = ORIENTED_EDGE ( 'NONE', *, *, #199, .F. ) ;
#40 = COORDINATED_UNIVERSAL_TIME_OFFSET ( 5, 0, .BEHIND. ) ;
#41 = CARTESIAN_POINT ( 'NONE',  ( -25.00000000000000000, -25.00000000000000000, 1.500000000000000000 ) ) ;
#42 = DIRECTION ( 'NONE',  ( 0.0000000000000000000, 1.000000000000000000, 0.0000000000000000000 ) ) ;
#43 = PLANE ( 'NONE',  #62 ) ;
#44 = VERTEX_POINT ( 'NONE', #90 ) ;
#45 = ORIENTED_EDGE ( 'NONE', *, *, #174, .F. ) ;
#46 = PLANE ( 'NONE',  #95 ) ;
#47 = ORIENTED_EDGE ( 'NONE', *, *, #180, .T. ) ;
#48 = ORIENTED_EDGE ( 'NONE', *, *, #224, .F. ) ;
#49 = CARTESIAN_POINT ( 'NONE',  ( 25.00000000000000400, 25.00000000000000000, 1.500000000000000000 ) ) ;
#50 = CARTESIAN_POINT ( 'NONE',  ( -25.00000000000000000, -25.00000000000000000, -1.500000000000000000 ) ) ;
#51 = EDGE_LOOP ( 'NONE', ( #229, #68, #97, #210 ) ) ;
#52 = VERTEX_POINT ( 'NONE', #24 ) ;
#53 = CARTESIAN_POINT ( 'NONE',  ( -25.00000000000000000, -25.00000000000000000, -1.500000000000000000 ) ) ;
#54 = PRODUCT_DEFINITION_FORMATION_WITH_SPECIFIED_SOURCE ( 'ANY', '', #139, .NOT_KNOWN. ) ;
#55 = ORIENTED_EDGE ( 'NONE', *, *, #224, .T. ) ;
#56 = ORIENTED_EDGE ( 'NONE', *, *, #199, .T. ) ;
#57 = APPROVAL_ROLE ( '' ) ;
#58 = DATE_AND_TIME ( #135, #2 ) ;
#59 = VERTEX_POINT ( 'NONE', #41 ) ;
#60 = VECTOR ( 'NONE', #213, 1000.000000000000000 ) ;
#61 = DIRECTION ( 'NONE',  ( -1.000000000000000000, 0.0000000000000000000, -0.0000000000000000000 ) ) ;
#62 = AXIS2_PLACEMENT_3D ( 'NONE', #73, #15, #127 ) ;
#63 = DATE_AND_TIME ( #102, #212 ) ;
#64 = VERTEX_POINT ( 'NONE', #78 ) ;
#65 = EDGE_LOOP ( 'NONE', ( #108, #56, #176, #47 ) ) ;
#66 = CARTESIAN_POINT ( 'NONE',  ( 0.0000000000000000000, 0.0000000000000000000, 0.0000000000000000000 ) ) ;
#67 = FACE_OUTER_BOUND ( 'NONE', #51, .T. ) ;
#68 = ORIENTED_EDGE ( 'NONE', *, *, #111, .F. ) ;
#69 = COORDINATED_UNIVERSAL_TIME_OFFSET ( 5, 0, .BEHIND. ) ;
#70 = DIRECTION ( 'NONE',  ( -0.0000000000000000000, -0.0000000000000000000, -1.000000000000000000 ) ) ;
#71 = ORIENTED_EDGE ( 'NONE', *, *, #180, .F. ) ;
#72 = DIRECTION ( 'NONE',  ( -0.0000000000000000000, -1.000000000000000000, -0.0000000000000000000 ) ) ;
#73 = CARTESIAN_POINT ( 'NONE',  ( -25.00000000000000000, -25.00000000000000000, 1.500000000000000000 ) ) ;
#74 = APPROVAL ( #197, 'UNSPECIFIED' ) ;
#75 = LOCAL_TIME ( 13, 1, 42.00000000000000000, #69 ) ;
#76 = DIRECTION ( 'NONE',  ( -1.000000000000000000, -0.0000000000000000000, -0.0000000000000000000 ) ) ;
#77 = ORIENTED_EDGE ( 'NONE', *, *, #214, .T. ) ;
#78 = CARTESIAN_POINT ( 'NONE',  ( 25.00000000000000400, -25.00000000000000000, 1.500000000000000000 ) ) ;
#79 = LINE ( 'NONE', #53, #169 ) ;
#80 = APPROVAL_STATUS ( 'not_yet_approved' ) ;
#81 = CLOSED_SHELL ( 'NONE', ( #205, #33, #150, #22, #203, #220 ) ) ;
#82 = ORIENTED_EDGE ( 'NONE', *, *, #111, .T. ) ;
#83 = DIRECTION ( 'NONE',  ( 0.0000000000000000000, 0.0000000000000000000, -1.000000000000000000 ) ) ;
#84 = VERTEX_POINT ( 'NONE', #50 ) ;
#85 = ORGANIZATION ( 'UNSPECIFIED', 'UNSPECIFIED', '' ) ;
#86 = DATE_AND_TIME ( #18, #75 ) ;
#87 = VECTOR ( 'NONE', #191, 1000.000000000000000 ) ;
#88 = CARTESIAN_POINT ( 'NONE',  ( -25.00000000000000000, 25.00000000000000000, -1.500000000000000000 ) ) ;
#89 = CC_DESIGN_APPROVAL ( #74, ( #54 ) ) ;
#90 = CARTESIAN_POINT ( 'NONE',  ( -25.00000000000000000, 25.00000000000000000, 1.500000000000000000 ) ) ;
#91 = PLANE ( 'NONE',  #159 ) ;
#92 = ORIENTED_EDGE ( 'NONE', *, *, #129, .F. ) ;
#93 = MANIFOLD_SOLID_BREP ( 'Extrude1', #81 ) ;
#94 = CARTESIAN_POINT ( 'NONE',  ( -25.00000000000000000, -25.00000000000000000, 1.500000000000000000 ) ) ;
#95 = AXIS2_PLACEMENT_3D ( 'NONE', #125, #140, #219 ) ;
#96 = CARTESIAN_POINT ( 'NONE',  ( -25.00000000000000000, 25.00000000000000000, 1.500000000000000000 ) ) ;
#97 = ORIENTED_EDGE ( 'NONE', *, *, #118, .F. ) ;
#98 = DATE_TIME_ROLE ( 'classification_date' ) ;
#99 = CC_DESIGN_PERSON_AND_ORGANIZATION_ASSIGNMENT ( #196, #9, ( #54 ) ) ;
#100 = EDGE_LOOP ( 'NONE', ( #77, #48, #39, #82 ) ) ;
#101 = LINE ( 'NONE', #186, #192 ) ;
#102 = CALENDAR_DATE ( 2017, 10, 4 ) ;
#103 = CARTESIAN_POINT ( 'NONE',  ( -25.00000000000000000, -25.00000000000000000, 1.500000000000000000 ) ) ;
#104 = COORDINATED_UNIVERSAL_TIME_OFFSET ( 5, 0, .BEHIND. ) ;
#105 = FACE_OUTER_BOUND ( 'NONE', #100, .T. ) ;
#106 = VERTEX_POINT ( 'NONE', #128 ) ;
#107 = FACE_OUTER_BOUND ( 'NONE', #225, .T. ) ;
#108 = ORIENTED_EDGE ( 'NONE', *, *, #118, .T. ) ;
#109 = MECHANICAL_CONTEXT ( 'NONE', #27, 'mechanical' ) ;
#110 = DATE_AND_TIME ( #181, #7 ) ;
#111 = EDGE_CURVE ( 'NONE', #59, #84, #30, .T. ) ;
#112 = APPROVAL_DATE_TIME ( #86, #233 ) ;
#113 = CC_DESIGN_PERSON_AND_ORGANIZATION_ASSIGNMENT ( #187, #193, ( #54 ) ) ;
#114 = VECTOR ( 'NONE', #16, 1000.000000000000000 ) ;
#115 = PERSON_AND_ORGANIZATION_ROLE ( 'classification_officer' ) ;
#116 = AXIS2_PLACEMENT_3D ( 'NONE', #32, #83, #61 ) ;
#117 = LINE ( 'NONE', #170, #204 ) ;
#118 = EDGE_CURVE ( 'NONE', #44, #59, #20, .T. ) ;
#119 = PLANE ( 'NONE',  #134 ) ;
#120 = DIRECTION ( 'NONE',  ( -0.0000000000000000000, -0.0000000000000000000, -1.000000000000000000 ) ) ;
#121 = DIRECTION ( 'NONE',  ( 0.0000000000000000000, 0.0000000000000000000, -1.000000000000000000 ) ) ;
#122 = PERSON_AND_ORGANIZATION ( #158, #85 ) ;
#123 = SECURITY_CLASSIFICATION ( '', '', #162 ) ;
#124 = PLANE ( 'NONE',  #28 ) ;
#125 = CARTESIAN_POINT ( 'NONE',  ( 25.00000000000000400, -25.00000000000000000, 1.500000000000000000 ) ) ;
#126 = CALENDAR_DATE ( 2017, 10, 4 ) ;
#127 = DIRECTION ( 'NONE',  ( 0.0000000000000000000, -0.0000000000000000000, 1.000000000000000000 ) ) ;
#128 = CARTESIAN_POINT ( 'NONE',  ( -25.00000000000000000, 25.00000000000000000, -1.500000000000000000 ) ) ;
#129 = EDGE_CURVE ( 'NONE', #163, #228, #25, .T. ) ;
#130 = VECTOR ( 'NONE', #70, 1000.000000000000000 ) ;
#131 = CC_DESIGN_PERSON_AND_ORGANIZATION_ASSIGNMENT ( #172, #115, ( #123 ) ) ;
#132 = DIRECTION ( 'NONE',  ( -0.0000000000000000000, -0.0000000000000000000, -1.000000000000000000 ) ) ;
#133 = LINE ( 'NONE', #34, #114 ) ;
#134 = AXIS2_PLACEMENT_3D ( 'NONE', #151, #171, #182 ) ;
#135 = CALENDAR_DATE ( 2017, 10, 4 ) ;
#136 = CARTESIAN_POINT ( 'NONE',  ( 25.00000000000000400, -25.00000000000000000, -1.500000000000000000 ) ) ;
#137 = APPLICATION_CONTEXT ( 'configuration controlled 3d designs of mechanical parts and assemblies' ) ;
#138 = LOCAL_TIME ( 13, 1, 42.00000000000000000, #35 ) ;
#139 = PRODUCT ( 'Web Model 48413_48418', 'Web Model 48413_48418', '', ( #109 ) ) ;
#140 = DIRECTION ( 'NONE',  ( -1.000000000000000000, 0.0000000000000000000, 0.0000000000000000000 ) ) ;
#141 = EDGE_CURVE ( 'NONE', #52, #228, #8, .T. ) ;
#142 = ORIENTED_EDGE ( 'NONE', *, *, #161, .F. ) ;
#143 = APPROVAL_DATE_TIME ( #63, #157 ) ;
#144 = DIRECTION ( 'NONE',  ( -0.0000000000000000000, -0.0000000000000000000, -1.000000000000000000 ) ) ;
#145 = CC_DESIGN_DATE_AND_TIME_ASSIGNMENT ( #10, #98, ( #123 ) ) ;
#146 = DIRECTION ( 'NONE',  ( 0.0000000000000000000, 1.000000000000000000, 0.0000000000000000000 ) ) ;
#147 = APPROVAL_PERSON_ORGANIZATION ( #178, #74, #153 ) ;
#148 = LINE ( 'NONE', #103, #87 ) ;
#149 =( GEOMETRIC_REPRESENTATION_CONTEXT ( 3 ) GLOBAL_UNCERTAINTY_ASSIGNED_CONTEXT ( ( #168 ) ) GLOBAL_UNIT_ASSIGNED_CONTEXT ( ( #189, #190, #165 ) ) REPRESENTATION_CONTEXT ( 'NONE', 'WORKASPACE' ) );
#150 = ADVANCED_FACE ( 'NONE', ( #154 ), #46, .F. ) ;
#151 = CARTESIAN_POINT ( 'NONE',  ( -25.00000000000000000, -25.00000000000000000, 1.500000000000000000 ) ) ;
#152 = EDGE_CURVE ( 'NONE', #64, #52, #101, .T. ) ;
#153 = APPROVAL_ROLE ( '' ) ;
#154 = FACE_OUTER_BOUND ( 'NONE', #223, .T. ) ;
#155 = PRODUCT_DEFINITION_SHAPE ( 'NONE', 'NONE',  #218 ) ;
#156 = DATE_TIME_ROLE ( 'creation_date' ) ;
#157 = APPROVAL ( #80, 'UNSPECIFIED' ) ;
#158 = PERSON ( 'UNSPECIFIED', 'UNSPECIFIED', 'UNSPECIFIED', ('UNSPECIFIED'), ('UNSPECIFIED'), ('UNSPECIFIED') ) ;
#159 = AXIS2_PLACEMENT_3D ( 'NONE', #88, #121, #195 ) ;
#160 = PERSON_AND_ORGANIZATION ( #158, #85 ) ;
#161 = EDGE_CURVE ( 'NONE', #228, #106, #26, .T. ) ;
#162 = SECURITY_CLASSIFICATION_LEVEL ( 'unclassified' ) ;
#163 = VERTEX_POINT ( 'NONE', #136 ) ;
#164 = APPROVAL_PERSON_ORGANIZATION ( #160, #233, #57 ) ;
#165 =( NAMED_UNIT ( * ) SI_UNIT ( $, .STERADIAN. ) SOLID_ANGLE_UNIT ( ) );
#166 = LINE ( 'NONE', #232, #60 ) ;
#167 = CC_DESIGN_APPROVAL ( #157, ( #123 ) ) ;
#168 = UNCERTAINTY_MEASURE_WITH_UNIT (LENGTH_MEASURE( 1.000000000000000100E-005 ), #189, 'distance_accuracy_value', 'NONE');
#169 = VECTOR ( 'NONE', #209, 1000.000000000000000 ) ;
#170 = CARTESIAN_POINT ( 'NONE',  ( 25.00000000000000400, -25.00000000000000000, 1.500000000000000000 ) ) ;
#171 = DIRECTION ( 'NONE',  ( 1.000000000000000000, 0.0000000000000000000, 0.0000000000000000000 ) ) ;
#172 = PERSON_AND_ORGANIZATION ( #158, #85 ) ;
#173 = APPLICATION_PROTOCOL_DEFINITION ( 'international standard', 'config_control_design', 1994, #137 ) ;
#174 = EDGE_CURVE ( 'NONE', #44, #106, #222, .T. ) ;
#175 = CC_DESIGN_SECURITY_CLASSIFICATION ( #123, ( #54 ) ) ;
#176 = ORIENTED_EDGE ( 'NONE', *, *, #152, .T. ) ;
#177 = PERSON_AND_ORGANIZATION ( #158, #85 ) ;
#178 = PERSON_AND_ORGANIZATION ( #158, #85 ) ;
#179 = PERSON_AND_ORGANIZATION_ROLE ( 'creator' ) ;
#180 = EDGE_CURVE ( 'NONE', #52, #44, #133, .T. ) ;
#181 = CALENDAR_DATE ( 2017, 10, 4 ) ;
#182 = DIRECTION ( 'NONE',  ( 0.0000000000000000000, 0.0000000000000000000, -1.000000000000000000 ) ) ;
#183 = DIRECTION ( 'NONE',  ( 0.0000000000000000000, -1.000000000000000000, 0.0000000000000000000 ) ) ;
#184 = PRODUCT_RELATED_PRODUCT_CATEGORY ( 'detail', '', ( #139 ) ) ;
#185 = APPROVAL_PERSON_ORGANIZATION ( #19, #157, #12 ) ;
#186 = CARTESIAN_POINT ( 'NONE',  ( 25.00000000000000400, -25.00000000000000000, 1.500000000000000000 ) ) ;
#187 = PERSON_AND_ORGANIZATION ( #158, #85 ) ;
#188 = EDGE_CURVE ( 'NONE', #106, #84, #79, .T. ) ;
#189 =( LENGTH_UNIT ( ) NAMED_UNIT ( * ) SI_UNIT ( .MILLI., .METRE. ) );
#190 =( NAMED_UNIT ( * ) PLANE_ANGLE_UNIT ( ) SI_UNIT ( $, .RADIAN. ) );
#191 = DIRECTION ( 'NONE',  ( 1.000000000000000000, 0.0000000000000000000, 0.0000000000000000000 ) ) ;
#192 = VECTOR ( 'NONE', #146, 1000.000000000000000 ) ;
#193 = PERSON_AND_ORGANIZATION_ROLE ( 'design_supplier' ) ;
#194 = AXIS2_PLACEMENT_3D ( 'NONE', #66, #3, #206 ) ;
#195 = DIRECTION ( 'NONE',  ( -1.000000000000000000, 0.0000000000000000000, -0.0000000000000000000 ) ) ;
#196 = PERSON_AND_ORGANIZATION ( #158, #85 ) ;
#197 = APPROVAL_STATUS ( 'not_yet_approved' ) ;
#198 = ADVANCED_BREP_SHAPE_REPRESENTATION ( 'Web Model 48413_48418', ( #93, #194 ), #149 ) ;
#199 = EDGE_CURVE ( 'NONE', #59, #64, #148, .T. ) ;
#200 = APPROVAL_DATE_TIME ( #58, #74 ) ;
#201 = CARTESIAN_POINT ( 'NONE',  ( -25.00000000000000000, 25.00000000000000000, -1.500000000000000000 ) ) ;
#202 = CARTESIAN_POINT ( 'NONE',  ( 25.00000000000000400, -25.00000000000000000, -1.500000000000000000 ) ) ;
#203 = ADVANCED_FACE ( 'NONE', ( #211 ), #231, .F. ) ;
#204 = VECTOR ( 'NONE', #132, 1000.000000000000000 ) ;
#205 = ADVANCED_FACE ( 'NONE', ( #67 ), #119, .F. ) ;
#206 = DIRECTION ( 'NONE',  ( 1.000000000000000000, 0.0000000000000000000, 0.0000000000000000000 ) ) ;
#207 = CC_DESIGN_PERSON_AND_ORGANIZATION_ASSIGNMENT ( #177, #14, ( #139 ) ) ;
#208 = COORDINATED_UNIVERSAL_TIME_OFFSET ( 5, 0, .BEHIND. ) ;
#209 = DIRECTION ( 'NONE',  ( -0.0000000000000000000, -1.000000000000000000, -0.0000000000000000000 ) ) ;
#210 = ORIENTED_EDGE ( 'NONE', *, *, #174, .T. ) ;
#211 = FACE_OUTER_BOUND ( 'NONE', #65, .T. ) ;
#212 = LOCAL_TIME ( 13, 1, 42.00000000000000000, #208 ) ;
#213 = DIRECTION ( 'NONE',  ( 1.000000000000000000, 0.0000000000000000000, 0.0000000000000000000 ) ) ;
#214 = EDGE_CURVE ( 'NONE', #84, #163, #166, .T. ) ;
#215 = ORIENTED_EDGE ( 'NONE', *, *, #188, .F. ) ;
#216 = VECTOR ( 'NONE', #144, 1000.000000000000000 ) ;
#217 = APPLICATION_PROTOCOL_DEFINITION ( 'international standard', 'config_control_design', 1994, #27 ) ;
#218 = PRODUCT_DEFINITION ( 'UNKNOWN', '', #54, #235 ) ;
#219 = DIRECTION ( 'NONE',  ( 0.0000000000000000000, 0.0000000000000000000, 1.000000000000000000 ) ) ;
#220 = ADVANCED_FACE ( 'NONE', ( #107 ), #91, .T. ) ;
#221 = EDGE_LOOP ( 'NONE', ( #230, #45, #71, #234 ) ) ;
#222 = LINE ( 'NONE', #13, #130 ) ;
#223 = EDGE_LOOP ( 'NONE', ( #38, #237, #227, #55 ) ) ;
#224 = EDGE_CURVE ( 'NONE', #64, #163, #117, .T. ) ;
#225 = EDGE_LOOP ( 'NONE', ( #215, #142, #92, #37 ) ) ;
#226 = VECTOR ( 'NONE', #76, 1000.000000000000000 ) ;
#227 = ORIENTED_EDGE ( 'NONE', *, *, #152, .F. ) ;
#228 = VERTEX_POINT ( 'NONE', #6 ) ;
#229 = ORIENTED_EDGE ( 'NONE', *, *, #188, .T. ) ;
#230 = ORIENTED_EDGE ( 'NONE', *, *, #161, .T. ) ;
#231 = PLANE ( 'NONE',  #116 ) ;
#232 = CARTESIAN_POINT ( 'NONE',  ( -25.00000000000000000, -25.00000000000000000, -1.500000000000000000 ) ) ;
#233 = APPROVAL ( #29, 'UNSPECIFIED' ) ;
#234 = ORIENTED_EDGE ( 'NONE', *, *, #141, .T. ) ;
#235 = DESIGN_CONTEXT ( 'detailed design', #137, 'design' ) ;
#236 = CARTESIAN_POINT ( 'NONE',  ( -25.00000000000000000, -25.00000000000000000, 1.500000000000000000 ) ) ;
#237 = ORIENTED_EDGE ( 'NONE', *, *, #141, .F. ) ;
ENDSEC;
END-ISO-10303-21;
