ISO-10303-21;
HEADER;
FILE_DESCRIPTION (( 'STEP AP203' ),
    '1' );
FILE_NAME ('Web Model 43927_46629.step',
    '2017-04-24T19:43:49',
    ( '' ),
    ( '' ),
    'SwSTEP 2.0',
    'SolidWorks 2016',
    '' );
FILE_SCHEMA (( 'CONFIG_CONTROL_DESIGN' ));
ENDSEC;

DATA;
#1 = APPROVAL_ROLE ( '' ) ;
#2 = APPROVAL_ROLE ( '' ) ;
#3 = DATE_AND_TIME ( #4, #5 ) ;
#4 = CALENDAR_DATE ( 2017, 24, 4 ) ;
#5 = LOCAL_TIME ( 15, 43, 49.00000000000000000, #8 ) ;
#6 = VECTOR ( 'NONE', #183, 1000.000000000000000 ) ;
#7 = EDGE_CURVE ( 'NONE', #148, #175, #125, .T. ) ;
#8 = COORDINATED_UNIVERSAL_TIME_OFFSET ( 5, 0, .BEHIND. ) ;
#9 = PERSON_AND_ORGANIZATION ( #151, #41 ) ;
#10 = APPROVAL_DATE_TIME ( #13, #220 ) ;
#11 = EDGE_CURVE ( 'NONE', #158, #89, #202, .T. ) ;
#12 = PERSON_AND_ORGANIZATION ( #151, #41 ) ;
#13 = DATE_AND_TIME ( #14, #18 ) ;
#14 = CALENDAR_DATE ( 2017, 24, 4 ) ;
#15 = PERSON_AND_ORGANIZATION_ROLE ( 'design_owner' ) ;
#16 = CARTESIAN_POINT ( 'NONE',  ( -152.4000000000000100, -127.0000000000000300, 0.7500000000000000000 ) ) ;
#17 = AXIS2_PLACEMENT_3D ( 'NONE', #188, #95, #82 ) ;
#18 = LOCAL_TIME ( 15, 43, 49.00000000000000000, #20 ) ;
#19 = CARTESIAN_POINT ( 'NONE',  ( 152.4000000000000100, -127.0000000000000000, 0.7500000000000000000 ) ) ;
#20 = COORDINATED_UNIVERSAL_TIME_OFFSET ( 5, 0, .BEHIND. ) ;
#21 = APPROVAL_PERSON_ORGANIZATION ( #23, #220, #2 ) ;
#22 = DIRECTION ( 'NONE',  ( 0.0000000000000000000, 0.0000000000000000000, 1.000000000000000000 ) ) ;
#23 = PERSON_AND_ORGANIZATION ( #151, #41 ) ;
#24 = CARTESIAN_POINT ( 'NONE',  ( 152.4000000000000100, -127.0000000000000000, -0.7500000000000000000 ) ) ;
#25 = COORDINATED_UNIVERSAL_TIME_OFFSET ( 5, 0, .BEHIND. ) ;
#26 = EDGE_CURVE ( 'NONE', #89, #203, #161, .T. ) ;
#27 = PRODUCT ( 'Web Model 43927_46629', 'Web Model 43927_46629', '', ( #167 ) ) ;
#28 =( NAMED_UNIT ( * ) PLANE_ANGLE_UNIT ( ) SI_UNIT ( $, .RADIAN. ) );
#29 = CC_DESIGN_PERSON_AND_ORGANIZATION_ASSIGNMENT ( #96, #236, ( #118 ) ) ;
#30 = EDGE_CURVE ( 'NONE', #89, #77, #159, .T. ) ;
#31 = CARTESIAN_POINT ( 'NONE',  ( -152.4000000000000100, -127.0000000000000300, -0.7500000000000000000 ) ) ;
#32 = CARTESIAN_POINT ( 'NONE',  ( 152.4000000000000100, 127.0000000000000300, 0.7500000000000000000 ) ) ;
#33 = CC_DESIGN_APPROVAL ( #109, ( #118 ) ) ;
#34 = AXIS2_PLACEMENT_3D ( 'NONE', #140, #42, #53 ) ;
#35 = ORIENTED_EDGE ( 'NONE', *, *, #7, .T. ) ;
#36 = FACE_OUTER_BOUND ( 'NONE', #51, .T. ) ;
#37 = CALENDAR_DATE ( 2017, 24, 4 ) ;
#38 = PERSON_AND_ORGANIZATION ( #151, #41 ) ;
#39 = ADVANCED_FACE ( 'NONE', ( #36 ), #54, .T. ) ;
#40 = PRODUCT_DEFINITION_SHAPE ( 'NONE', 'NONE',  #63 ) ;
#41 = ORGANIZATION ( 'UNSPECIFIED', 'UNSPECIFIED', '' ) ;
#42 = DIRECTION ( 'NONE',  ( 0.0000000000000000000, -0.0000000000000000000, 1.000000000000000000 ) ) ;
#43 = SHAPE_DEFINITION_REPRESENTATION ( #40, #142 ) ;
#44 = CARTESIAN_POINT ( 'NONE',  ( -152.4000000000000100, -127.0000000000000300, 0.7500000000000000000 ) ) ;
#45 = APPROVAL_STATUS ( 'not_yet_approved' ) ;
#46 = PLANE ( 'NONE',  #119 ) ;
#47 = DATE_TIME_ROLE ( 'creation_date' ) ;
#48 = DIRECTION ( 'NONE',  ( -0.0000000000000000000, -1.000000000000000000, -0.0000000000000000000 ) ) ;
#49 = CARTESIAN_POINT ( 'NONE',  ( 152.4000000000000100, -127.0000000000000000, 0.7500000000000000000 ) ) ;
#50 = CARTESIAN_POINT ( 'NONE',  ( 0.0000000000000000000, 0.0000000000000000000, -0.7500000000000000000 ) ) ;
#51 = EDGE_LOOP ( 'NONE', ( #83, #211, #104, #73 ) ) ;
#52 = ADVANCED_FACE ( 'NONE', ( #218 ), #227, .F. ) ;
#53 = DIRECTION ( 'NONE',  ( 1.000000000000000000, 0.0000000000000000000, -0.0000000000000000000 ) ) ;
#54 = PLANE ( 'NONE',  #34 ) ;
#55 = PERSON_AND_ORGANIZATION_ROLE ( 'creator' ) ;
#56 = VECTOR ( 'NONE', #152, 1000.000000000000000 ) ;
#57 = DIRECTION ( 'NONE',  ( -1.000000000000000000, 0.0000000000000000000, 0.0000000000000000000 ) ) ;
#58 = DIRECTION ( 'NONE',  ( 0.0000000000000000000, 0.0000000000000000000, 1.000000000000000000 ) ) ;
#59 = CC_DESIGN_DATE_AND_TIME_ASSIGNMENT ( #88, #193, ( #223 ) ) ;
#60 = PLANE ( 'NONE',  #176 ) ;
#61 = FACE_OUTER_BOUND ( 'NONE', #216, .T. ) ;
#62 = PERSON_AND_ORGANIZATION ( #151, #41 ) ;
#63 = PRODUCT_DEFINITION ( 'UNKNOWN', '', #118, #85 ) ;
#64 =( GEOMETRIC_REPRESENTATION_CONTEXT ( 3 ) GLOBAL_UNCERTAINTY_ASSIGNED_CONTEXT ( ( #162 ) ) GLOBAL_UNIT_ASSIGNED_CONTEXT ( ( #103, #28, #172 ) ) REPRESENTATION_CONTEXT ( 'NONE', 'WORKASPACE' ) );
#65 = VECTOR ( 'NONE', #79, 1000.000000000000000 ) ;
#66 = LINE ( 'NONE', #101, #56 ) ;
#67 = EDGE_CURVE ( 'NONE', #203, #185, #222, .T. ) ;
#68 = LINE ( 'NONE', #231, #65 ) ;
#69 = DATE_AND_TIME ( #138, #102 ) ;
#70 = FACE_OUTER_BOUND ( 'NONE', #181, .T. ) ;
#71 = LINE ( 'NONE', #24, #233 ) ;
#72 = LINE ( 'NONE', #192, #74 ) ;
#73 = ORIENTED_EDGE ( 'NONE', *, *, #147, .T. ) ;
#74 = VECTOR ( 'NONE', #235, 1000.000000000000000 ) ;
#75 = VECTOR ( 'NONE', #129, 1000.000000000000000 ) ;
#76 = AXIS2_PLACEMENT_3D ( 'NONE', #44, #106, #213 ) ;
#77 = VERTEX_POINT ( 'NONE', #31 ) ;
#78 = VECTOR ( 'NONE', #121, 1000.000000000000000 ) ;
#79 = DIRECTION ( 'NONE',  ( -0.0000000000000000000, -0.0000000000000000000, -1.000000000000000000 ) ) ;
#80 = DIRECTION ( 'NONE',  ( 0.0000000000000000000, 1.000000000000000000, 0.0000000000000000000 ) ) ;
#81 = ORIENTED_EDGE ( 'NONE', *, *, #130, .F. ) ;
#82 = DIRECTION ( 'NONE',  ( 1.000000000000000000, 1.821231995776175700E-016, 0.0000000000000000000 ) ) ;
#83 = ORIENTED_EDGE ( 'NONE', *, *, #11, .T. ) ;
#84 = ORIENTED_EDGE ( 'NONE', *, *, #215, .F. ) ;
#85 = DESIGN_CONTEXT ( 'detailed design', #170, 'design' ) ;
#86 = VERTEX_POINT ( 'NONE', #32 ) ;
#87 = CC_DESIGN_PERSON_AND_ORGANIZATION_ASSIGNMENT ( #62, #226, ( #118 ) ) ;
#88 = DATE_AND_TIME ( #37, #108 ) ;
#89 = VERTEX_POINT ( 'NONE', #93 ) ;
#90 = ORIENTED_EDGE ( 'NONE', *, *, #168, .T. ) ;
#91 = CC_DESIGN_PERSON_AND_ORGANIZATION_ASSIGNMENT ( #38, #15, ( #27 ) ) ;
#92 = PLANE ( 'NONE',  #133 ) ;
#93 = CARTESIAN_POINT ( 'NONE',  ( -152.4000000000000100, -127.0000000000000300, 0.7500000000000000000 ) ) ;
#94 = DIRECTION ( 'NONE',  ( -0.0000000000000000000, -0.0000000000000000000, -1.000000000000000000 ) ) ;
#95 = DIRECTION ( 'NONE',  ( 1.821231995776175700E-016, -1.000000000000000000, 0.0000000000000000000 ) ) ;
#96 = PERSON_AND_ORGANIZATION ( #151, #41 ) ;
#97 = DIRECTION ( 'NONE',  ( 1.000000000000000000, 0.0000000000000000000, 0.0000000000000000000 ) ) ;
#98 = DIRECTION ( 'NONE',  ( -0.0000000000000000000, -0.0000000000000000000, -1.000000000000000000 ) ) ;
#99 = PRODUCT_RELATED_PRODUCT_CATEGORY ( 'detail', '', ( #27 ) ) ;
#100 = APPLICATION_PROTOCOL_DEFINITION ( 'international standard', 'config_control_design', 1994, #187 ) ;
#101 = CARTESIAN_POINT ( 'NONE',  ( 152.4000000000000100, -127.0000000000000000, 0.7500000000000000000 ) ) ;
#102 = LOCAL_TIME ( 15, 43, 49.00000000000000000, #25 ) ;
#103 =( LENGTH_UNIT ( ) NAMED_UNIT ( * ) SI_UNIT ( .MILLI., .METRE. ) );
#104 = ORIENTED_EDGE ( 'NONE', *, *, #215, .T. ) ;
#105 = DIRECTION ( 'NONE',  ( -9.106159978880878600E-017, 1.000000000000000000, 0.0000000000000000000 ) ) ;
#106 = DIRECTION ( 'NONE',  ( 1.000000000000000000, 0.0000000000000000000, 0.0000000000000000000 ) ) ;
#107 = DIRECTION ( 'NONE',  ( -1.000000000000000000, -1.821231995776175700E-016, 0.0000000000000000000 ) ) ;
#108 = LOCAL_TIME ( 15, 43, 49.00000000000000000, #197 ) ;
#109 = APPROVAL ( #45, 'UNSPECIFIED' ) ;
#110 = EDGE_CURVE ( 'NONE', #175, #77, #225, .T. ) ;
#111 = ADVANCED_FACE ( 'NONE', ( #219 ), #46, .F. ) ;
#112 = APPROVAL_STATUS ( 'not_yet_approved' ) ;
#113 = APPROVAL_DATE_TIME ( #139, #195 ) ;
#114 = CC_DESIGN_SECURITY_CLASSIFICATION ( #223, ( #118 ) ) ;
#115 = COORDINATED_UNIVERSAL_TIME_OFFSET ( 5, 0, .BEHIND. ) ;
#116 = CARTESIAN_POINT ( 'NONE',  ( 152.4000000000000100, -127.0000000000000000, 0.7500000000000000000 ) ) ;
#117 = CARTESIAN_POINT ( 'NONE',  ( 152.4000000000000100, 127.0000000000000300, 0.7500000000000000000 ) ) ;
#118 = PRODUCT_DEFINITION_FORMATION_WITH_SPECIFIED_SOURCE ( 'ANY', '', #27, .NOT_KNOWN. ) ;
#119 = AXIS2_PLACEMENT_3D ( 'NONE', #49, #57, #58 ) ;
#120 = LINE ( 'NONE', #117, #134 ) ;
#121 = DIRECTION ( 'NONE',  ( -1.000000000000000000, -1.821231995776175700E-016, 0.0000000000000000000 ) ) ;
#122 = ADVANCED_FACE ( 'NONE', ( #207 ), #60, .F. ) ;
#123 = CC_DESIGN_PERSON_AND_ORGANIZATION_ASSIGNMENT ( #12, #205, ( #223 ) ) ;
#124 = CARTESIAN_POINT ( 'NONE',  ( 152.4000000000000100, 127.0000000000000300, -0.7500000000000000000 ) ) ;
#125 = LINE ( 'NONE', #124, #78 ) ;
#126 = CARTESIAN_POINT ( 'NONE',  ( -152.4000000000000100, 126.9999999999999700, 0.7500000000000000000 ) ) ;
#127 = APPROVAL_PERSON_ORGANIZATION ( #234, #109, #1 ) ;
#128 = CARTESIAN_POINT ( 'NONE',  ( 152.4000000000000100, 127.0000000000000300, 0.7500000000000000000 ) ) ;
#129 = DIRECTION ( 'NONE',  ( -0.0000000000000000000, -0.0000000000000000000, -1.000000000000000000 ) ) ;
#130 = EDGE_CURVE ( 'NONE', #86, #148, #237, .T. ) ;
#131 = ORIENTED_EDGE ( 'NONE', *, *, #30, .T. ) ;
#132 = PERSON_AND_ORGANIZATION ( #151, #41 ) ;
#133 = AXIS2_PLACEMENT_3D ( 'NONE', #169, #105, #209 ) ;
#134 = VECTOR ( 'NONE', #107, 1000.000000000000000 ) ;
#135 = CC_DESIGN_DATE_AND_TIME_ASSIGNMENT ( #3, #47, ( #63 ) ) ;
#136 = DIRECTION ( 'NONE',  ( 1.000000000000000000, 9.106159978880878600E-017, -0.0000000000000000000 ) ) ;
#137 = EDGE_CURVE ( 'NONE', #185, #148, #71, .T. ) ;
#138 = CALENDAR_DATE ( 2017, 24, 4 ) ;
#139 = DATE_AND_TIME ( #171, #224 ) ;
#140 = CARTESIAN_POINT ( 'NONE',  ( 0.0000000000000000000, 0.0000000000000000000, 0.7500000000000000000 ) ) ;
#141 = VECTOR ( 'NONE', #98, 1000.000000000000000 ) ;
#142 = ADVANCED_BREP_SHAPE_REPRESENTATION ( 'Web Model 43927_46629', ( #229, #144 ), #64 ) ;
#143 = ORIENTED_EDGE ( 'NONE', *, *, #130, .T. ) ;
#144 = AXIS2_PLACEMENT_3D ( 'NONE', #232, #22, #97 ) ;
#145 = APPLICATION_PROTOCOL_DEFINITION ( 'international standard', 'config_control_design', 1994, #170 ) ;
#146 = CARTESIAN_POINT ( 'NONE',  ( -152.4000000000000100, -127.0000000000000300, 0.7500000000000000000 ) ) ;
#147 = EDGE_CURVE ( 'NONE', #86, #158, #120, .T. ) ;
#148 = VERTEX_POINT ( 'NONE', #210 ) ;
#149 = CARTESIAN_POINT ( 'NONE',  ( 152.4000000000000100, -127.0000000000000000, -0.7500000000000000000 ) ) ;
#150 = ORIENTED_EDGE ( 'NONE', *, *, #11, .F. ) ;
#151 = PERSON ( 'UNSPECIFIED', 'UNSPECIFIED', 'UNSPECIFIED', ('UNSPECIFIED'), ('UNSPECIFIED'), ('UNSPECIFIED') ) ;
#152 = DIRECTION ( 'NONE',  ( 0.0000000000000000000, 1.000000000000000000, 0.0000000000000000000 ) ) ;
#153 = CARTESIAN_POINT ( 'NONE',  ( -152.4000000000000100, -127.0000000000000300, -0.7500000000000000000 ) ) ;
#154 = VECTOR ( 'NONE', #136, 1000.000000000000000 ) ;
#155 = ORIENTED_EDGE ( 'NONE', *, *, #168, .F. ) ;
#156 = CARTESIAN_POINT ( 'NONE',  ( -152.4000000000000100, 126.9999999999999700, -0.7500000000000000000 ) ) ;
#157 = ORIENTED_EDGE ( 'NONE', *, *, #174, .T. ) ;
#158 = VERTEX_POINT ( 'NONE', #126 ) ;
#159 = LINE ( 'NONE', #16, #141 ) ;
#160 = ORIENTED_EDGE ( 'NONE', *, *, #174, .F. ) ;
#161 = LINE ( 'NONE', #19, #154 ) ;
#162 = UNCERTAINTY_MEASURE_WITH_UNIT (LENGTH_MEASURE( 1.000000000000000100E-005 ), #103, 'distance_accuracy_value', 'NONE');
#163 = ORIENTED_EDGE ( 'NONE', *, *, #137, .F. ) ;
#164 = ORIENTED_EDGE ( 'NONE', *, *, #30, .F. ) ;
#165 = CC_DESIGN_APPROVAL ( #195, ( #223 ) ) ;
#166 = ORIENTED_EDGE ( 'NONE', *, *, #26, .F. ) ;
#167 = MECHANICAL_CONTEXT ( 'NONE', #187, 'mechanical' ) ;
#168 = EDGE_CURVE ( 'NONE', #77, #185, #72, .T. ) ;
#169 = CARTESIAN_POINT ( 'NONE',  ( 152.4000000000000100, -127.0000000000000000, 0.7500000000000000000 ) ) ;
#170 = APPLICATION_CONTEXT ( 'configuration controlled 3d designs of mechanical parts and assemblies' ) ;
#171 = CALENDAR_DATE ( 2017, 24, 4 ) ;
#172 =( NAMED_UNIT ( * ) SI_UNIT ( $, .STERADIAN. ) SOLID_ANGLE_UNIT ( ) );
#173 = EDGE_LOOP ( 'NONE', ( #189, #81, #84, #199 ) ) ;
#174 = EDGE_CURVE ( 'NONE', #158, #175, #68, .T. ) ;
#175 = VERTEX_POINT ( 'NONE', #156 ) ;
#176 = AXIS2_PLACEMENT_3D ( 'NONE', #50, #208, #230 ) ;
#177 = ADVANCED_FACE ( 'NONE', ( #70 ), #194, .F. ) ;
#178 = ORIENTED_EDGE ( 'NONE', *, *, #110, .F. ) ;
#179 = APPROVAL_DATE_TIME ( #69, #109 ) ;
#180 = ORIENTED_EDGE ( 'NONE', *, *, #7, .F. ) ;
#181 = EDGE_LOOP ( 'NONE', ( #35, #160, #200, #143 ) ) ;
#182 = APPROVAL_ROLE ( '' ) ;
#183 = DIRECTION ( 'NONE',  ( -0.0000000000000000000, -1.000000000000000000, -0.0000000000000000000 ) ) ;
#184 = ORIENTED_EDGE ( 'NONE', *, *, #67, .F. ) ;
#185 = VERTEX_POINT ( 'NONE', #149 ) ;
#186 = CC_DESIGN_PERSON_AND_ORGANIZATION_ASSIGNMENT ( #9, #55, ( #63 ) ) ;
#187 = APPLICATION_CONTEXT ( 'configuration controlled 3d designs of mechanical parts and assemblies' ) ;
#188 = CARTESIAN_POINT ( 'NONE',  ( 152.4000000000000100, 127.0000000000000300, 0.7500000000000000000 ) ) ;
#189 = ORIENTED_EDGE ( 'NONE', *, *, #137, .T. ) ;
#190 = CARTESIAN_POINT ( 'NONE',  ( 152.4000000000000100, -127.0000000000000000, 0.7500000000000000000 ) ) ;
#191 = APPROVAL_STATUS ( 'not_yet_approved' ) ;
#192 = CARTESIAN_POINT ( 'NONE',  ( 152.4000000000000100, -127.0000000000000000, -0.7500000000000000000 ) ) ;
#193 = DATE_TIME_ROLE ( 'classification_date' ) ;
#194 = PLANE ( 'NONE',  #17 ) ;
#195 = APPROVAL ( #191, 'UNSPECIFIED' ) ;
#196 = CLOSED_SHELL ( 'NONE', ( #52, #201, #111, #177, #39, #122 ) ) ;
#197 = COORDINATED_UNIVERSAL_TIME_OFFSET ( 5, 0, .BEHIND. ) ;
#198 = ORIENTED_EDGE ( 'NONE', *, *, #110, .T. ) ;
#199 = ORIENTED_EDGE ( 'NONE', *, *, #67, .T. ) ;
#200 = ORIENTED_EDGE ( 'NONE', *, *, #147, .F. ) ;
#201 = ADVANCED_FACE ( 'NONE', ( #61 ), #92, .F. ) ;
#202 = LINE ( 'NONE', #146, #6 ) ;
#203 = VERTEX_POINT ( 'NONE', #116 ) ;
#204 = EDGE_LOOP ( 'NONE', ( #198, #164, #150, #157 ) ) ;
#205 = PERSON_AND_ORGANIZATION_ROLE ( 'classification_officer' ) ;
#206 = EDGE_LOOP ( 'NONE', ( #178, #180, #163, #155 ) ) ;
#207 = FACE_OUTER_BOUND ( 'NONE', #206, .T. ) ;
#208 = DIRECTION ( 'NONE',  ( 0.0000000000000000000, -0.0000000000000000000, 1.000000000000000000 ) ) ;
#209 = DIRECTION ( 'NONE',  ( -1.000000000000000000, -9.106159978880878600E-017, 0.0000000000000000000 ) ) ;
#210 = CARTESIAN_POINT ( 'NONE',  ( 152.4000000000000100, 127.0000000000000300, -0.7500000000000000000 ) ) ;
#211 = ORIENTED_EDGE ( 'NONE', *, *, #26, .T. ) ;
#212 = SECURITY_CLASSIFICATION_LEVEL ( 'unclassified' ) ;
#213 = DIRECTION ( 'NONE',  ( 0.0000000000000000000, 0.0000000000000000000, -1.000000000000000000 ) ) ;
#214 = CC_DESIGN_APPROVAL ( #220, ( #63 ) ) ;
#215 = EDGE_CURVE ( 'NONE', #203, #86, #66, .T. ) ;
#216 = EDGE_LOOP ( 'NONE', ( #90, #184, #166, #131 ) ) ;
#217 = APPROVAL_PERSON_ORGANIZATION ( #132, #195, #182 ) ;
#218 = FACE_OUTER_BOUND ( 'NONE', #204, .T. ) ;
#219 = FACE_OUTER_BOUND ( 'NONE', #173, .T. ) ;
#220 = APPROVAL ( #112, 'UNSPECIFIED' ) ;
#221 = VECTOR ( 'NONE', #94, 1000.000000000000000 ) ;
#222 = LINE ( 'NONE', #190, #221 ) ;
#223 = SECURITY_CLASSIFICATION ( '', '', #212 ) ;
#224 = LOCAL_TIME ( 15, 43, 49.00000000000000000, #115 ) ;
#225 = LINE ( 'NONE', #153, #228 ) ;
#226 = PERSON_AND_ORGANIZATION_ROLE ( 'design_supplier' ) ;
#227 = PLANE ( 'NONE',  #76 ) ;
#228 = VECTOR ( 'NONE', #48, 1000.000000000000000 ) ;
#229 = MANIFOLD_SOLID_BREP ( 'Boss-Extrude1', #196 ) ;
#230 = DIRECTION ( 'NONE',  ( 1.000000000000000000, 0.0000000000000000000, -0.0000000000000000000 ) ) ;
#231 = CARTESIAN_POINT ( 'NONE',  ( -152.4000000000000100, 126.9999999999999700, 0.7500000000000000000 ) ) ;
#232 = CARTESIAN_POINT ( 'NONE',  ( 0.0000000000000000000, 0.0000000000000000000, 0.0000000000000000000 ) ) ;
#233 = VECTOR ( 'NONE', #80, 1000.000000000000000 ) ;
#234 = PERSON_AND_ORGANIZATION ( #151, #41 ) ;
#235 = DIRECTION ( 'NONE',  ( 1.000000000000000000, 9.106159978880878600E-017, -0.0000000000000000000 ) ) ;
#236 = PERSON_AND_ORGANIZATION_ROLE ( 'creator' ) ;
#237 = LINE ( 'NONE', #128, #75 ) ;
ENDSEC;
END-ISO-10303-21;
