ISO-10303-21;
HEADER;
FILE_DESCRIPTION (( 'STEP AP203' ),
    '1' );
FILE_NAME ('Web Model 55257MX_15780.step',
    '2020-10-19T17:09:11',
    ( '' ),
    ( '' ),
    'SwSTEP 2.0',
    'SolidWorks 2018',
    '' );
FILE_SCHEMA (( 'CONFIG_CONTROL_DESIGN' ));
ENDSEC;

DATA;
#1 = PERSON_AND_ORGANIZATION ( #218, #140 ) ;
#2 = ORIENTED_EDGE ( 'NONE', *, *, #87, .T. ) ;
#3 = ORIENTED_EDGE ( 'NONE', *, *, #173, .F. ) ;
#4 = LINE ( 'NONE', #169, #26 ) ;
#5 = DATE_AND_TIME ( #133, #102 ) ;
#6 = MANIFOLD_SOLID_BREP ( 'Boss-Extrude1', #222 ) ;
#7 = COORDINATED_UNIVERSAL_TIME_OFFSET ( 5, 0, .BEHIND. ) ;
#8 = APPROVAL ( #154, 'UNSPECIFIED' ) ;
#9 = LINE ( 'NONE', #20, #234 ) ;
#10 = CARTESIAN_POINT ( 'NONE',  ( -15.00000000000000000, -15.00000000000000355, -3.000000000000000000 ) ) ;
#11 = CC_DESIGN_APPROVAL ( #8, ( #103 ) ) ;
#12 = PERSON_AND_ORGANIZATION ( #218, #140 ) ;
#13 = DIRECTION ( 'NONE',  ( 1.156482317317871478E-16, -1.000000000000000000, 0.0000000000000000000 ) ) ;
#14 = CARTESIAN_POINT ( 'NONE',  ( 15.00000000000000355, 15.00000000000000178, -3.000000000000000000 ) ) ;
#15 = LINE ( 'NONE', #152, #230 ) ;
#16 = DIRECTION ( 'NONE',  ( -0.0000000000000000000, -0.0000000000000000000, -1.000000000000000000 ) ) ;
#17 = EDGE_CURVE ( 'NONE', #236, #189, #4, .T. ) ;
#18 = CARTESIAN_POINT ( 'NONE',  ( 15.00000000000000355, -15.00000000000000000, 3.000000000000000000 ) ) ;
#19 = CARTESIAN_POINT ( 'NONE',  ( -15.00000000000000000, -15.00000000000000355, 3.000000000000000000 ) ) ;
#20 = CARTESIAN_POINT ( 'NONE',  ( 15.00000000000000355, 15.00000000000000178, 3.000000000000000000 ) ) ;
#21 = APPROVAL_ROLE ( '' ) ;
#22 = UNCERTAINTY_MEASURE_WITH_UNIT (LENGTH_MEASURE( 1.000000000000000082E-05 ), #109, 'distance_accuracy_value', 'NONE');
#23 = FACE_OUTER_BOUND ( 'NONE', #33, .T. ) ;
#24 = ORIENTED_EDGE ( 'NONE', *, *, #159, .F. ) ;
#25 = DIRECTION ( 'NONE',  ( 1.000000000000000000, 0.0000000000000000000, -0.0000000000000000000 ) ) ;
#26 = VECTOR ( 'NONE', #119, 1000.000000000000000 ) ;
#27 = ADVANCED_FACE ( 'NONE', ( #184 ), #62, .F. ) ;
#28 = ORIENTED_EDGE ( 'NONE', *, *, #36, .T. ) ;
#29 = LINE ( 'NONE', #64, #76 ) ;
#30 = DIRECTION ( 'NONE',  ( 1.000000000000000000, 0.0000000000000000000, 0.0000000000000000000 ) ) ;
#31 = CALENDAR_DATE ( 2020, 19, 10 ) ;
#32 = APPROVAL_STATUS ( 'not_yet_approved' ) ;
#33 = EDGE_LOOP ( 'NONE', ( #211, #162, #97, #42 ) ) ;
#34 = DIRECTION ( 'NONE',  ( 0.0000000000000000000, -0.0000000000000000000, 1.000000000000000000 ) ) ;
#35 = VECTOR ( 'NONE', #16, 1000.000000000000000 ) ;
#36 = EDGE_CURVE ( 'NONE', #146, #189, #136, .T. ) ;
#37 = VECTOR ( 'NONE', #138, 1000.000000000000000 ) ;
#38 = LOCAL_TIME ( 13, 9, 11.00000000000000000, #77 ) ;
#39 = LINE ( 'NONE', #135, #175 ) ;
#40 = DIRECTION ( 'NONE',  ( 1.000000000000000000, 1.156482317317871478E-16, -0.0000000000000000000 ) ) ;
#41 = EDGE_LOOP ( 'NONE', ( #46, #172, #227, #190 ) ) ;
#42 = ORIENTED_EDGE ( 'NONE', *, *, #144, .T. ) ;
#43 = CARTESIAN_POINT ( 'NONE',  ( 15.00000000000000355, 15.00000000000000178, 3.000000000000000000 ) ) ;
#44 = AXIS2_PLACEMENT_3D ( 'NONE', #142, #215, #53 ) ;
#45 = CARTESIAN_POINT ( 'NONE',  ( 15.00000000000000355, -15.00000000000000000, 3.000000000000000000 ) ) ;
#46 = ORIENTED_EDGE ( 'NONE', *, *, #75, .F. ) ;
#47 = CARTESIAN_POINT ( 'NONE',  ( -15.00000000000000000, -15.00000000000000355, 3.000000000000000000 ) ) ;
#48 = VERTEX_POINT ( 'NONE', #86 ) ;
#49 = CARTESIAN_POINT ( 'NONE',  ( -15.00000000000000000, 14.99999999999999822, 3.000000000000000000 ) ) ;
#50 = FACE_OUTER_BOUND ( 'NONE', #155, .T. ) ;
#51 = MECHANICAL_CONTEXT ( 'NONE', #73, 'mechanical' ) ;
#52 = EDGE_LOOP ( 'NONE', ( #168, #194, #70, #96 ) ) ;
#53 = DIRECTION ( 'NONE',  ( 1.000000000000000000, 0.0000000000000000000, 0.0000000000000000000 ) ) ;
#54 = ADVANCED_FACE ( 'NONE', ( #186 ), #68, .F. ) ;
#55 = EDGE_LOOP ( 'NONE', ( #28, #117, #24, #203 ) ) ;
#56 = CARTESIAN_POINT ( 'NONE',  ( 15.00000000000000355, -15.00000000000000000, 3.000000000000000000 ) ) ;
#57 =( NAMED_UNIT ( * ) PLANE_ANGLE_UNIT ( ) SI_UNIT ( $, .RADIAN. ) );
#58 = PERSON_AND_ORGANIZATION ( #218, #140 ) ;
#59 = COORDINATED_UNIVERSAL_TIME_OFFSET ( 5, 0, .BEHIND. ) ;
#60 = VERTEX_POINT ( 'NONE', #43 ) ;
#61 = CC_DESIGN_PERSON_AND_ORGANIZATION_ASSIGNMENT ( #165, #91, ( #156 ) ) ;
#62 = PLANE ( 'NONE',  #192 ) ;
#63 = PERSON_AND_ORGANIZATION ( #218, #140 ) ;
#64 = CARTESIAN_POINT ( 'NONE',  ( 15.00000000000000355, 15.00000000000000178, 3.000000000000000000 ) ) ;
#65 = DIRECTION ( 'NONE',  ( -1.000000000000000000, -1.156482317317871478E-16, 0.0000000000000000000 ) ) ;
#66 = LINE ( 'NONE', #49, #115 ) ;
#67 = EDGE_CURVE ( 'NONE', #189, #147, #15, .T. ) ;
#68 = PLANE ( 'NONE',  #106 ) ;
#69 = CALENDAR_DATE ( 2020, 19, 10 ) ;
#70 = ORIENTED_EDGE ( 'NONE', *, *, #134, .T. ) ;
#71 = DIRECTION ( 'NONE',  ( -0.0000000000000000000, -1.000000000000000000, -0.0000000000000000000 ) ) ;
#72 = DIRECTION ( 'NONE',  ( 1.000000000000000000, 0.0000000000000000000, -0.0000000000000000000 ) ) ;
#73 = APPLICATION_CONTEXT ( 'configuration controlled 3d designs of mechanical parts and assemblies' ) ;
#74 = FACE_OUTER_BOUND ( 'NONE', #100, .T. ) ;
#75 = EDGE_CURVE ( 'NONE', #83, #146, #131, .T. ) ;
#76 = VECTOR ( 'NONE', #207, 1000.000000000000000 ) ;
#77 = COORDINATED_UNIVERSAL_TIME_OFFSET ( 5, 0, .BEHIND. ) ;
#78 = ORIENTED_EDGE ( 'NONE', *, *, #17, .T. ) ;
#79 = VECTOR ( 'NONE', #223, 1000.000000000000000 ) ;
#80 = SHAPE_DEFINITION_REPRESENTATION ( #153, #202 ) ;
#81 = LOCAL_TIME ( 13, 9, 11.00000000000000000, #95 ) ;
#82 = CARTESIAN_POINT ( 'NONE',  ( -15.00000000000000000, 14.99999999999999822, -3.000000000000000000 ) ) ;
#83 = VERTEX_POINT ( 'NONE', #82 ) ;
#84 = APPROVAL ( #111, 'UNSPECIFIED' ) ;
#85 = DIRECTION ( 'NONE',  ( -1.000000000000000000, -1.156482317317871478E-16, 0.0000000000000000000 ) ) ;
#86 = CARTESIAN_POINT ( 'NONE',  ( -15.00000000000000000, -15.00000000000000355, 3.000000000000000000 ) ) ;
#87 = EDGE_CURVE ( 'NONE', #147, #83, #219, .T. ) ;
#88 = CARTESIAN_POINT ( 'NONE',  ( -15.00000000000000000, -15.00000000000000355, 3.000000000000000000 ) ) ;
#89 = APPLICATION_PROTOCOL_DEFINITION ( 'international standard', 'config_control_design', 1994, #237 ) ;
#90 = ORIENTED_EDGE ( 'NONE', *, *, #93, .T. ) ;
#91 = PERSON_AND_ORGANIZATION_ROLE ( 'design_owner' ) ;
#92 = APPROVAL_DATE_TIME ( #128, #84 ) ;
#93 = EDGE_CURVE ( 'NONE', #60, #147, #29, .T. ) ;
#94 = ORIENTED_EDGE ( 'NONE', *, *, #67, .T. ) ;
#95 = COORDINATED_UNIVERSAL_TIME_OFFSET ( 5, 0, .BEHIND. ) ;
#96 = ORIENTED_EDGE ( 'NONE', *, *, #173, .T. ) ;
#97 = ORIENTED_EDGE ( 'NONE', *, *, #209, .F. ) ;
#98 = PRODUCT_RELATED_PRODUCT_CATEGORY ( 'detail', '', ( #156 ) ) ;
#99 = LOCAL_TIME ( 13, 9, 11.00000000000000000, #7 ) ;
#100 = EDGE_LOOP ( 'NONE', ( #94, #182, #221, #78 ) ) ;
#101 = DIRECTION ( 'NONE',  ( 0.0000000000000000000, -0.0000000000000000000, 1.000000000000000000 ) ) ;
#102 = LOCAL_TIME ( 13, 9, 11.00000000000000000, #59 ) ;
#103 = SECURITY_CLASSIFICATION ( '', '', #231 ) ;
#104 = VECTOR ( 'NONE', #71, 1000.000000000000000 ) ;
#105 = CALENDAR_DATE ( 2020, 19, 10 ) ;
#106 = AXIS2_PLACEMENT_3D ( 'NONE', #45, #193, #65 ) ;
#107 = PLANE ( 'NONE',  #224 ) ;
#108 = ADVANCED_FACE ( 'NONE', ( #50 ), #228, .F. ) ;
#109 =( LENGTH_UNIT ( ) NAMED_UNIT ( * ) SI_UNIT ( .MILLI., .METRE. ) );
#110 = FACE_OUTER_BOUND ( 'NONE', #52, .T. ) ;
#111 = APPROVAL_STATUS ( 'not_yet_approved' ) ;
#112 = DIRECTION ( 'NONE',  ( 0.0000000000000000000, 0.0000000000000000000, -1.000000000000000000 ) ) ;
#113 = CC_DESIGN_PERSON_AND_ORGANIZATION_ASSIGNMENT ( #201, #195, ( #103 ) ) ;
#114 = DIRECTION ( 'NONE',  ( -1.000000000000000000, -1.156482317317871478E-16, 0.0000000000000000000 ) ) ;
#115 = VECTOR ( 'NONE', #121, 1000.000000000000000 ) ;
#116 = AXIS2_PLACEMENT_3D ( 'NONE', #120, #13, #225 ) ;
#117 = ORIENTED_EDGE ( 'NONE', *, *, #17, .F. ) ;
#118 = VECTOR ( 'NONE', #40, 1000.000000000000000 ) ;
#119 = DIRECTION ( 'NONE',  ( -0.0000000000000000000, -0.0000000000000000000, -1.000000000000000000 ) ) ;
#120 = CARTESIAN_POINT ( 'NONE',  ( 15.00000000000000355, 15.00000000000000178, 3.000000000000000000 ) ) ;
#121 = DIRECTION ( 'NONE',  ( -0.0000000000000000000, -0.0000000000000000000, -1.000000000000000000 ) ) ;
#122 = APPLICATION_PROTOCOL_DEFINITION ( 'international standard', 'config_control_design', 1994, #73 ) ;
#123 = VECTOR ( 'NONE', #85, 1000.000000000000000 ) ;
#124 = CARTESIAN_POINT ( 'NONE',  ( 0.0000000000000000000, 0.0000000000000000000, 3.000000000000000000 ) ) ;
#125 = PRODUCT_DEFINITION_FORMATION_WITH_SPECIFIED_SOURCE ( 'ANY', '', #156, .NOT_KNOWN. ) ;
#126 = APPROVAL_ROLE ( '' ) ;
#127 = AXIS2_PLACEMENT_3D ( 'NONE', #56, #179, #158 ) ;
#128 = DATE_AND_TIME ( #105, #132 ) ;
#129 = COORDINATED_UNIVERSAL_TIME_OFFSET ( 5, 0, .BEHIND. ) ;
#130 = APPROVAL ( #32, 'UNSPECIFIED' ) ;
#131 = LINE ( 'NONE', #210, #79 ) ;
#132 = LOCAL_TIME ( 13, 9, 11.00000000000000000, #129 ) ;
#133 = CALENDAR_DATE ( 2020, 19, 10 ) ;
#134 = EDGE_CURVE ( 'NONE', #236, #60, #39, .T. ) ;
#135 = CARTESIAN_POINT ( 'NONE',  ( 15.00000000000000355, -15.00000000000000000, 3.000000000000000000 ) ) ;
#136 = LINE ( 'NONE', #149, #118 ) ;
#137 = ORIENTED_EDGE ( 'NONE', *, *, #144, .F. ) ;
#138 = DIRECTION ( 'NONE',  ( 1.000000000000000000, 1.156482317317871478E-16, -0.0000000000000000000 ) ) ;
#139 = PERSON_AND_ORGANIZATION_ROLE ( 'design_supplier' ) ;
#140 = ORGANIZATION ( 'UNSPECIFIED', 'UNSPECIFIED', '' ) ;
#141 = APPROVAL_PERSON_ORGANIZATION ( #188, #8, #21 ) ;
#142 = CARTESIAN_POINT ( 'NONE',  ( 0.0000000000000000000, 0.0000000000000000000, 0.0000000000000000000 ) ) ;
#143 = DATE_TIME_ROLE ( 'creation_date' ) ;
#144 = EDGE_CURVE ( 'NONE', #181, #83, #66, .T. ) ;
#145 = LINE ( 'NONE', #19, #104 ) ;
#146 = VERTEX_POINT ( 'NONE', #10 ) ;
#147 = VERTEX_POINT ( 'NONE', #14 ) ;
#148 = CC_DESIGN_PERSON_AND_ORGANIZATION_ASSIGNMENT ( #58, #139, ( #125 ) ) ;
#149 = CARTESIAN_POINT ( 'NONE',  ( 15.00000000000000355, -15.00000000000000000, -3.000000000000000000 ) ) ;
#150 = EDGE_CURVE ( 'NONE', #48, #146, #180, .T. ) ;
#151 = CARTESIAN_POINT ( 'NONE',  ( 0.0000000000000000000, 0.0000000000000000000, -3.000000000000000000 ) ) ;
#152 = CARTESIAN_POINT ( 'NONE',  ( 15.00000000000000355, -15.00000000000000000, -3.000000000000000000 ) ) ;
#153 = PRODUCT_DEFINITION_SHAPE ( 'NONE', 'NONE',  #200 ) ;
#154 = APPROVAL_STATUS ( 'not_yet_approved' ) ;
#155 = EDGE_LOOP ( 'NONE', ( #2, #137, #3, #90 ) ) ;
#156 = PRODUCT ( 'Web Model 55257MX_15780', 'Web Model 55257MX_15780', '', ( #51 ) ) ;
#157 = PLANE ( 'NONE',  #187 ) ;
#158 = DIRECTION ( 'NONE',  ( 0.0000000000000000000, 0.0000000000000000000, 1.000000000000000000 ) ) ;
#159 = EDGE_CURVE ( 'NONE', #48, #236, #217, .T. ) ;
#160 = ADVANCED_FACE ( 'NONE', ( #23 ), #107, .F. ) ;
#161 = APPROVAL_DATE_TIME ( #206, #8 ) ;
#162 = ORIENTED_EDGE ( 'NONE', *, *, #150, .F. ) ;
#163 = ADVANCED_FACE ( 'NONE', ( #74 ), #177, .F. ) ;
#164 = CC_DESIGN_SECURITY_CLASSIFICATION ( #103, ( #125 ) ) ;
#165 = PERSON_AND_ORGANIZATION ( #218, #140 ) ;
#166 = DATE_AND_TIME ( #185, #99 ) ;
#167 = DATE_AND_TIME ( #69, #38 ) ;
#168 = ORIENTED_EDGE ( 'NONE', *, *, #209, .T. ) ;
#169 = CARTESIAN_POINT ( 'NONE',  ( 15.00000000000000355, -15.00000000000000000, 3.000000000000000000 ) ) ;
#170 = CC_DESIGN_APPROVAL ( #84, ( #200 ) ) ;
#171 = CARTESIAN_POINT ( 'NONE',  ( 15.00000000000000355, 15.00000000000000178, -3.000000000000000000 ) ) ;
#172 = ORIENTED_EDGE ( 'NONE', *, *, #87, .F. ) ;
#173 = EDGE_CURVE ( 'NONE', #60, #181, #9, .T. ) ;
#174 = PERSON_AND_ORGANIZATION_ROLE ( 'creator' ) ;
#175 = VECTOR ( 'NONE', #208, 1000.000000000000000 ) ;
#176 = CARTESIAN_POINT ( 'NONE',  ( 15.00000000000000355, -15.00000000000000000, -3.000000000000000000 ) ) ;
#177 = PLANE ( 'NONE',  #127 ) ;
#178 = PERSON_AND_ORGANIZATION ( #218, #140 ) ;
#179 = DIRECTION ( 'NONE',  ( -1.000000000000000000, 0.0000000000000000000, 0.0000000000000000000 ) ) ;
#180 = LINE ( 'NONE', #47, #35 ) ;
#181 = VERTEX_POINT ( 'NONE', #214 ) ;
#182 = ORIENTED_EDGE ( 'NONE', *, *, #93, .F. ) ;
#183 = CC_DESIGN_DATE_AND_TIME_ASSIGNMENT ( #167, #143, ( #200 ) ) ;
#184 = FACE_OUTER_BOUND ( 'NONE', #41, .T. ) ;
#185 = CALENDAR_DATE ( 2020, 19, 10 ) ;
#186 = FACE_OUTER_BOUND ( 'NONE', #55, .T. ) ;
#187 = AXIS2_PLACEMENT_3D ( 'NONE', #124, #34, #72 ) ;
#188 = PERSON_AND_ORGANIZATION ( #218, #140 ) ;
#189 = VERTEX_POINT ( 'NONE', #176 ) ;
#190 = ORIENTED_EDGE ( 'NONE', *, *, #36, .F. ) ;
#191 = CARTESIAN_POINT ( 'NONE',  ( 15.00000000000000355, -15.00000000000000000, 3.000000000000000000 ) ) ;
#192 = AXIS2_PLACEMENT_3D ( 'NONE', #151, #101, #25 ) ;
#193 = DIRECTION ( 'NONE',  ( -1.156482317317871478E-16, 1.000000000000000000, 0.0000000000000000000 ) ) ;
#194 = ORIENTED_EDGE ( 'NONE', *, *, #159, .T. ) ;
#195 = PERSON_AND_ORGANIZATION_ROLE ( 'classification_officer' ) ;
#196 =( NAMED_UNIT ( * ) SI_UNIT ( $, .STERADIAN. ) SOLID_ANGLE_UNIT ( ) );
#197 =( GEOMETRIC_REPRESENTATION_CONTEXT ( 3 ) GLOBAL_UNCERTAINTY_ASSIGNED_CONTEXT ( ( #22 ) ) GLOBAL_UNIT_ASSIGNED_CONTEXT ( ( #109, #57, #196 ) ) REPRESENTATION_CONTEXT ( 'NONE', 'WORKASPACE' ) );
#198 = APPROVAL_PERSON_ORGANIZATION ( #12, #130, #126 ) ;
#199 = APPROVAL_DATE_TIME ( #166, #130 ) ;
#200 = PRODUCT_DEFINITION ( 'UNKNOWN', '', #125, #226 ) ;
#201 = PERSON_AND_ORGANIZATION ( #218, #140 ) ;
#202 = ADVANCED_BREP_SHAPE_REPRESENTATION ( 'Web Model 55257MX_15780', ( #6, #44 ), #197 ) ;
#203 = ORIENTED_EDGE ( 'NONE', *, *, #150, .T. ) ;
#204 = APPROVAL_PERSON_ORGANIZATION ( #63, #84, #232 ) ;
#205 = CC_DESIGN_PERSON_AND_ORGANIZATION_ASSIGNMENT ( #1, #174, ( #200 ) ) ;
#206 = DATE_AND_TIME ( #31, #81 ) ;
#207 = DIRECTION ( 'NONE',  ( -0.0000000000000000000, -0.0000000000000000000, -1.000000000000000000 ) ) ;
#208 = DIRECTION ( 'NONE',  ( 0.0000000000000000000, 1.000000000000000000, 0.0000000000000000000 ) ) ;
#209 = EDGE_CURVE ( 'NONE', #181, #48, #145, .T. ) ;
#210 = CARTESIAN_POINT ( 'NONE',  ( -15.00000000000000000, -15.00000000000000355, -3.000000000000000000 ) ) ;
#211 = ORIENTED_EDGE ( 'NONE', *, *, #75, .T. ) ;
#212 = PERSON_AND_ORGANIZATION_ROLE ( 'creator' ) ;
#213 = CC_DESIGN_DATE_AND_TIME_ASSIGNMENT ( #5, #216, ( #103 ) ) ;
#214 = CARTESIAN_POINT ( 'NONE',  ( -15.00000000000000000, 14.99999999999999822, 3.000000000000000000 ) ) ;
#215 = DIRECTION ( 'NONE',  ( 0.0000000000000000000, 0.0000000000000000000, 1.000000000000000000 ) ) ;
#216 = DATE_TIME_ROLE ( 'classification_date' ) ;
#217 = LINE ( 'NONE', #191, #37 ) ;
#218 = PERSON ( 'UNSPECIFIED', 'UNSPECIFIED', 'UNSPECIFIED', ('UNSPECIFIED'), ('UNSPECIFIED'), ('UNSPECIFIED') ) ;
#219 = LINE ( 'NONE', #171, #123 ) ;
#220 = CC_DESIGN_PERSON_AND_ORGANIZATION_ASSIGNMENT ( #178, #212, ( #125 ) ) ;
#221 = ORIENTED_EDGE ( 'NONE', *, *, #134, .F. ) ;
#222 = CLOSED_SHELL ( 'NONE', ( #160, #54, #163, #108, #235, #27 ) ) ;
#223 = DIRECTION ( 'NONE',  ( -0.0000000000000000000, -1.000000000000000000, -0.0000000000000000000 ) ) ;
#224 = AXIS2_PLACEMENT_3D ( 'NONE', #88, #30, #112 ) ;
#225 = DIRECTION ( 'NONE',  ( 1.000000000000000000, 1.156482317317871478E-16, 0.0000000000000000000 ) ) ;
#226 = DESIGN_CONTEXT ( 'detailed design', #237, 'design' ) ;
#227 = ORIENTED_EDGE ( 'NONE', *, *, #67, .F. ) ;
#228 = PLANE ( 'NONE',  #116 ) ;
#229 = DIRECTION ( 'NONE',  ( 0.0000000000000000000, 1.000000000000000000, 0.0000000000000000000 ) ) ;
#230 = VECTOR ( 'NONE', #229, 1000.000000000000000 ) ;
#231 = SECURITY_CLASSIFICATION_LEVEL ( 'unclassified' ) ;
#232 = APPROVAL_ROLE ( '' ) ;
#233 = CC_DESIGN_APPROVAL ( #130, ( #125 ) ) ;
#234 = VECTOR ( 'NONE', #114, 1000.000000000000000 ) ;
#235 = ADVANCED_FACE ( 'NONE', ( #110 ), #157, .T. ) ;
#236 = VERTEX_POINT ( 'NONE', #18 ) ;
#237 = APPLICATION_CONTEXT ( 'configuration controlled 3d designs of mechanical parts and assemblies' ) ;
ENDSEC;
END-ISO-10303-21;
