ISO-10303-21;
HEADER;
FILE_DESCRIPTION (( 'STEP AP203' ),
    '1' );
FILE_NAME ('Web Model 55257MX_46078.step',
    '2017-10-30T13:17:29',
    ( '' ),
    ( '' ),
    'SwSTEP 2.0',
    'SolidWorks 2016',
    '' );
FILE_SCHEMA (( 'CONFIG_CONTROL_DESIGN' ));
ENDSEC;

DATA;
#1 = DIRECTION ( 'NONE',  ( 1.000000000000000000, 1.156482317317871500E-016, 0.0000000000000000000 ) ) ;
#2 = ADVANCED_FACE ( 'NONE', ( #180 ), #49, .F. ) ;
#3 = PERSON_AND_ORGANIZATION_ROLE ( 'design_owner' ) ;
#4 = APPROVAL_STATUS ( 'not_yet_approved' ) ;
#5 = AXIS2_PLACEMENT_3D ( 'NONE', #64, #129, #65 ) ;
#6 = ADVANCED_BREP_SHAPE_REPRESENTATION ( 'Web Model 55257MX_46078', ( #190, #22 ), #97 ) ;
#7 = PERSON_AND_ORGANIZATION_ROLE ( 'classification_officer' ) ;
#8 = LOCAL_TIME ( 9, 17, 29.00000000000000000, #47 ) ;
#9 = ADVANCED_FACE ( 'NONE', ( #226 ), #164, .T. ) ;
#10 = VECTOR ( 'NONE', #110, 1000.000000000000000 ) ;
#11 = LINE ( 'NONE', #108, #87 ) ;
#12 = CLOSED_SHELL ( 'NONE', ( #153, #2, #114, #138, #9, #228 ) ) ;
#13 = PRODUCT ( 'Web Model 55257MX_46078', 'Web Model 55257MX_46078', '', ( #227 ) ) ;
#14 = ORIENTED_EDGE ( 'NONE', *, *, #31, .T. ) ;
#15 = EDGE_CURVE ( 'NONE', #107, #67, #56, .T. ) ;
#16 = CARTESIAN_POINT ( 'NONE',  ( 15.00000000000000400, 15.00000000000000200, 4.750000000000000000 ) ) ;
#17 = COORDINATED_UNIVERSAL_TIME_OFFSET ( 5, 0, .BEHIND. ) ;
#18 = DIRECTION ( 'NONE',  ( 1.000000000000000000, 0.0000000000000000000, 0.0000000000000000000 ) ) ;
#19 = CARTESIAN_POINT ( 'NONE',  ( -15.00000000000000000, -15.00000000000000400, 4.750000000000000000 ) ) ;
#20 = CARTESIAN_POINT ( 'NONE',  ( 15.00000000000000400, -15.00000000000000000, -4.750000000000000000 ) ) ;
#21 = ORIENTED_EDGE ( 'NONE', *, *, #172, .T. ) ;
#22 = AXIS2_PLACEMENT_3D ( 'NONE', #23, #41, #93 ) ;
#23 = CARTESIAN_POINT ( 'NONE',  ( 0.0000000000000000000, 0.0000000000000000000, 0.0000000000000000000 ) ) ;
#24 = VECTOR ( 'NONE', #217, 1000.000000000000000 ) ;
#25 = UNCERTAINTY_MEASURE_WITH_UNIT (LENGTH_MEASURE( 1.000000000000000100E-005 ), #139, 'distance_accuracy_value', 'NONE');
#26 = ORIENTED_EDGE ( 'NONE', *, *, #167, .T. ) ;
#27 = EDGE_CURVE ( 'NONE', #111, #107, #159, .T. ) ;
#28 = PERSON_AND_ORGANIZATION ( #199, #201 ) ;
#29 = APPROVAL_DATE_TIME ( #141, #79 ) ;
#30 = VERTEX_POINT ( 'NONE', #183 ) ;
#31 = EDGE_CURVE ( 'NONE', #162, #83, #90, .T. ) ;
#32 = CC_DESIGN_APPROVAL ( #79, ( #82 ) ) ;
#33 = SHAPE_DEFINITION_REPRESENTATION ( #63, #6 ) ;
#34 = ORIENTED_EDGE ( 'NONE', *, *, #167, .F. ) ;
#35 = CARTESIAN_POINT ( 'NONE',  ( -15.00000000000000000, -15.00000000000000400, -4.750000000000000000 ) ) ;
#36 = DIRECTION ( 'NONE',  ( -0.0000000000000000000, -0.0000000000000000000, -1.000000000000000000 ) ) ;
#37 = DATE_AND_TIME ( #123, #214 ) ;
#38 = CARTESIAN_POINT ( 'NONE',  ( 15.00000000000000400, -15.00000000000000000, 4.750000000000000000 ) ) ;
#39 = VECTOR ( 'NONE', #182, 1000.000000000000000 ) ;
#40 = PLANE ( 'NONE',  #170 ) ;
#41 = DIRECTION ( 'NONE',  ( 0.0000000000000000000, 0.0000000000000000000, 1.000000000000000000 ) ) ;
#42 = FACE_OUTER_BOUND ( 'NONE', #61, .T. ) ;
#43 = PLANE ( 'NONE',  #196 ) ;
#44 = CC_DESIGN_PERSON_AND_ORGANIZATION_ASSIGNMENT ( #125, #3, ( #13 ) ) ;
#45 = LINE ( 'NONE', #236, #24 ) ;
#46 = ORIENTED_EDGE ( 'NONE', *, *, #99, .F. ) ;
#47 = COORDINATED_UNIVERSAL_TIME_OFFSET ( 5, 0, .BEHIND. ) ;
#48 = ORIENTED_EDGE ( 'NONE', *, *, #172, .F. ) ;
#49 = PLANE ( 'NONE',  #5 ) ;
#50 = VECTOR ( 'NONE', #78, 1000.000000000000000 ) ;
#51 = CARTESIAN_POINT ( 'NONE',  ( 15.00000000000000400, 15.00000000000000200, 4.750000000000000000 ) ) ;
#52 = PERSON_AND_ORGANIZATION ( #199, #201 ) ;
#53 = CC_DESIGN_PERSON_AND_ORGANIZATION_ASSIGNMENT ( #173, #7, ( #218 ) ) ;
#54 = LINE ( 'NONE', #204, #50 ) ;
#55 = DIRECTION ( 'NONE',  ( 0.0000000000000000000, 0.0000000000000000000, -1.000000000000000000 ) ) ;
#56 = LINE ( 'NONE', #51, #155 ) ;
#57 = DIRECTION ( 'NONE',  ( 0.0000000000000000000, -0.0000000000000000000, 1.000000000000000000 ) ) ;
#58 = DIRECTION ( 'NONE',  ( 1.000000000000000000, 0.0000000000000000000, -0.0000000000000000000 ) ) ;
#59 = EDGE_CURVE ( 'NONE', #67, #162, #233, .T. ) ;
#60 = FACE_OUTER_BOUND ( 'NONE', #202, .T. ) ;
#61 = EDGE_LOOP ( 'NONE', ( #14, #46, #178, #98 ) ) ;
#62 = PRODUCT_DEFINITION_FORMATION_WITH_SPECIFIED_SOURCE ( 'ANY', '', #13, .NOT_KNOWN. ) ;
#63 = PRODUCT_DEFINITION_SHAPE ( 'NONE', 'NONE',  #82 ) ;
#64 = CARTESIAN_POINT ( 'NONE',  ( 15.00000000000000400, -15.00000000000000000, 4.750000000000000000 ) ) ;
#65 = DIRECTION ( 'NONE',  ( -1.000000000000000000, -1.156482317317871500E-016, 0.0000000000000000000 ) ) ;
#66 = LOCAL_TIME ( 9, 17, 29.00000000000000000, #146 ) ;
#67 = VERTEX_POINT ( 'NONE', #133 ) ;
#68 = PLANE ( 'NONE',  #152 ) ;
#69 = DIRECTION ( 'NONE',  ( 0.0000000000000000000, 0.0000000000000000000, 1.000000000000000000 ) ) ;
#70 = LOCAL_TIME ( 9, 17, 29.00000000000000000, #140 ) ;
#71 = CALENDAR_DATE ( 2017, 30, 10 ) ;
#72 = CARTESIAN_POINT ( 'NONE',  ( 15.00000000000000400, -15.00000000000000000, 4.750000000000000000 ) ) ;
#73 = VERTEX_POINT ( 'NONE', #185 ) ;
#74 = PERSON_AND_ORGANIZATION_ROLE ( 'creator' ) ;
#75 = PERSON_AND_ORGANIZATION ( #199, #201 ) ;
#76 = FACE_OUTER_BOUND ( 'NONE', #131, .T. ) ;
#77 = ORIENTED_EDGE ( 'NONE', *, *, #128, .T. ) ;
#78 = DIRECTION ( 'NONE',  ( -0.0000000000000000000, -0.0000000000000000000, -1.000000000000000000 ) ) ;
#79 = APPROVAL ( #224, 'UNSPECIFIED' ) ;
#80 = APPROVAL_DATE_TIME ( #210, #86 ) ;
#81 = LINE ( 'NONE', #191, #84 ) ;
#82 = PRODUCT_DEFINITION ( 'UNKNOWN', '', #62, #163 ) ;
#83 = VERTEX_POINT ( 'NONE', #35 ) ;
#84 = VECTOR ( 'NONE', #136, 1000.000000000000000 ) ;
#85 = CARTESIAN_POINT ( 'NONE',  ( 0.0000000000000000000, 0.0000000000000000000, 4.750000000000000000 ) ) ;
#86 = APPROVAL ( #187, 'UNSPECIFIED' ) ;
#87 = VECTOR ( 'NONE', #150, 1000.000000000000000 ) ;
#88 = CARTESIAN_POINT ( 'NONE',  ( 15.00000000000000400, 15.00000000000000200, 4.750000000000000000 ) ) ;
#89 = DIRECTION ( 'NONE',  ( 1.000000000000000000, 1.156482317317871500E-016, -0.0000000000000000000 ) ) ;
#90 = LINE ( 'NONE', #186, #143 ) ;
#91 = ORIENTED_EDGE ( 'NONE', *, *, #99, .T. ) ;
#92 = DIRECTION ( 'NONE',  ( -1.000000000000000000, -1.156482317317871500E-016, 0.0000000000000000000 ) ) ;
#93 = DIRECTION ( 'NONE',  ( 1.000000000000000000, 0.0000000000000000000, 0.0000000000000000000 ) ) ;
#94 = CARTESIAN_POINT ( 'NONE',  ( 0.0000000000000000000, 0.0000000000000000000, -4.750000000000000000 ) ) ;
#95 = CALENDAR_DATE ( 2017, 30, 10 ) ;
#96 = APPLICATION_PROTOCOL_DEFINITION ( 'international standard', 'config_control_design', 1994, #176 ) ;
#97 =( GEOMETRIC_REPRESENTATION_CONTEXT ( 3 ) GLOBAL_UNCERTAINTY_ASSIGNED_CONTEXT ( ( #25 ) ) GLOBAL_UNIT_ASSIGNED_CONTEXT ( ( #139, #206, #208 ) ) REPRESENTATION_CONTEXT ( 'NONE', 'WORKASPACE' ) );
#98 = ORIENTED_EDGE ( 'NONE', *, *, #59, .T. ) ;
#99 = EDGE_CURVE ( 'NONE', #73, #83, #45, .T. ) ;
#100 = EDGE_CURVE ( 'NONE', #73, #111, #195, .T. ) ;
#101 = VECTOR ( 'NONE', #36, 1000.000000000000000 ) ;
#102 = VERTEX_POINT ( 'NONE', #168 ) ;
#103 = COORDINATED_UNIVERSAL_TIME_OFFSET ( 5, 0, .BEHIND. ) ;
#104 = CC_DESIGN_DATE_AND_TIME_ASSIGNMENT ( #207, #116, ( #82 ) ) ;
#105 = CALENDAR_DATE ( 2017, 30, 10 ) ;
#106 = CARTESIAN_POINT ( 'NONE',  ( -15.00000000000000000, 14.99999999999999800, 4.750000000000000000 ) ) ;
#107 = VERTEX_POINT ( 'NONE', #16 ) ;
#108 = CARTESIAN_POINT ( 'NONE',  ( 15.00000000000000400, 15.00000000000000200, -4.750000000000000000 ) ) ;
#109 = CARTESIAN_POINT ( 'NONE',  ( 15.00000000000000400, -15.00000000000000000, 4.750000000000000000 ) ) ;
#110 = DIRECTION ( 'NONE',  ( 0.0000000000000000000, 1.000000000000000000, 0.0000000000000000000 ) ) ;
#111 = VERTEX_POINT ( 'NONE', #109 ) ;
#112 = CC_DESIGN_DATE_AND_TIME_ASSIGNMENT ( #37, #222, ( #218 ) ) ;
#113 = SECURITY_CLASSIFICATION_LEVEL ( 'unclassified' ) ;
#114 = ADVANCED_FACE ( 'NONE', ( #76 ), #68, .F. ) ;
#115 = EDGE_CURVE ( 'NONE', #83, #30, #175, .T. ) ;
#116 = DATE_TIME_ROLE ( 'creation_date' ) ;
#117 = APPROVAL_DATE_TIME ( #205, #179 ) ;
#118 = PERSON_AND_ORGANIZATION_ROLE ( 'creator' ) ;
#119 = VECTOR ( 'NONE', #89, 1000.000000000000000 ) ;
#120 = APPLICATION_PROTOCOL_DEFINITION ( 'international standard', 'config_control_design', 1994, #209 ) ;
#121 = CC_DESIGN_PERSON_AND_ORGANIZATION_ASSIGNMENT ( #28, #154, ( #62 ) ) ;
#122 = CC_DESIGN_APPROVAL ( #86, ( #62 ) ) ;
#123 = CALENDAR_DATE ( 2017, 30, 10 ) ;
#124 = EDGE_LOOP ( 'NONE', ( #21, #215, #156, #26 ) ) ;
#125 = PERSON_AND_ORGANIZATION ( #199, #201 ) ;
#126 = ORIENTED_EDGE ( 'NONE', *, *, #181, .T. ) ;
#127 = ORIENTED_EDGE ( 'NONE', *, *, #15, .T. ) ;
#128 = EDGE_CURVE ( 'NONE', #30, #102, #198, .T. ) ;
#129 = DIRECTION ( 'NONE',  ( -1.156482317317871500E-016, 1.000000000000000000, 0.0000000000000000000 ) ) ;
#130 = LOCAL_TIME ( 9, 17, 29.00000000000000000, #17 ) ;
#131 = EDGE_LOOP ( 'NONE', ( #77, #34, #148, #126 ) ) ;
#132 = CARTESIAN_POINT ( 'NONE',  ( 15.00000000000000400, -15.00000000000000000, 4.750000000000000000 ) ) ;
#133 = CARTESIAN_POINT ( 'NONE',  ( -15.00000000000000000, 14.99999999999999800, 4.750000000000000000 ) ) ;
#134 = DIRECTION ( 'NONE',  ( -0.0000000000000000000, -0.0000000000000000000, -1.000000000000000000 ) ) ;
#135 = ORIENTED_EDGE ( 'NONE', *, *, #115, .F. ) ;
#136 = DIRECTION ( 'NONE',  ( -0.0000000000000000000, -1.000000000000000000, -0.0000000000000000000 ) ) ;
#137 = ORIENTED_EDGE ( 'NONE', *, *, #234, .T. ) ;
#138 = ADVANCED_FACE ( 'NONE', ( #188 ), #203, .F. ) ;
#139 =( LENGTH_UNIT ( ) NAMED_UNIT ( * ) SI_UNIT ( .MILLI., .METRE. ) );
#140 = COORDINATED_UNIVERSAL_TIME_OFFSET ( 5, 0, .BEHIND. ) ;
#141 = DATE_AND_TIME ( #95, #130 ) ;
#142 = PRODUCT_RELATED_PRODUCT_CATEGORY ( 'detail', '', ( #13 ) ) ;
#143 = VECTOR ( 'NONE', #235, 1000.000000000000000 ) ;
#144 = ORIENTED_EDGE ( 'NONE', *, *, #181, .F. ) ;
#145 = AXIS2_PLACEMENT_3D ( 'NONE', #85, #166, #220 ) ;
#146 = COORDINATED_UNIVERSAL_TIME_OFFSET ( 5, 0, .BEHIND. ) ;
#147 = CARTESIAN_POINT ( 'NONE',  ( 15.00000000000000400, 15.00000000000000200, 4.750000000000000000 ) ) ;
#148 = ORIENTED_EDGE ( 'NONE', *, *, #27, .F. ) ;
#149 = CARTESIAN_POINT ( 'NONE',  ( -15.00000000000000000, 14.99999999999999800, -4.750000000000000000 ) ) ;
#150 = DIRECTION ( 'NONE',  ( -1.000000000000000000, -1.156482317317871500E-016, 0.0000000000000000000 ) ) ;
#151 = CARTESIAN_POINT ( 'NONE',  ( 15.00000000000000400, -15.00000000000000000, -4.750000000000000000 ) ) ;
#152 = AXIS2_PLACEMENT_3D ( 'NONE', #72, #200, #69 ) ;
#153 = ADVANCED_FACE ( 'NONE', ( #42 ), #40, .F. ) ;
#154 = PERSON_AND_ORGANIZATION_ROLE ( 'design_supplier' ) ;
#155 = VECTOR ( 'NONE', #92, 1000.000000000000000 ) ;
#156 = ORIENTED_EDGE ( 'NONE', *, *, #15, .F. ) ;
#157 = CC_DESIGN_PERSON_AND_ORGANIZATION_ASSIGNMENT ( #75, #74, ( #62 ) ) ;
#158 = AXIS2_PLACEMENT_3D ( 'NONE', #88, #169, #1 ) ;
#159 = LINE ( 'NONE', #38, #10 ) ;
#160 = APPROVAL_PERSON_ORGANIZATION ( #52, #179, #174 ) ;
#161 = VECTOR ( 'NONE', #134, 1000.000000000000000 ) ;
#162 = VERTEX_POINT ( 'NONE', #149 ) ;
#163 = DESIGN_CONTEXT ( 'detailed design', #176, 'design' ) ;
#164 = PLANE ( 'NONE',  #145 ) ;
#165 = VECTOR ( 'NONE', #219, 1000.000000000000000 ) ;
#166 = DIRECTION ( 'NONE',  ( 0.0000000000000000000, -0.0000000000000000000, 1.000000000000000000 ) ) ;
#167 = EDGE_CURVE ( 'NONE', #107, #102, #229, .T. ) ;
#168 = CARTESIAN_POINT ( 'NONE',  ( 15.00000000000000400, 15.00000000000000200, -4.750000000000000000 ) ) ;
#169 = DIRECTION ( 'NONE',  ( 1.156482317317871500E-016, -1.000000000000000000, 0.0000000000000000000 ) ) ;
#170 = AXIS2_PLACEMENT_3D ( 'NONE', #19, #18, #55 ) ;
#171 = ORIENTED_EDGE ( 'NONE', *, *, #115, .T. ) ;
#172 = EDGE_CURVE ( 'NONE', #102, #162, #11, .T. ) ;
#173 = PERSON_AND_ORGANIZATION ( #199, #201 ) ;
#174 = APPROVAL_ROLE ( '' ) ;
#175 = LINE ( 'NONE', #20, #119 ) ;
#176 = APPLICATION_CONTEXT ( 'configuration controlled 3d designs of mechanical parts and assemblies' ) ;
#177 = CC_DESIGN_SECURITY_CLASSIFICATION ( #218, ( #62 ) ) ;
#178 = ORIENTED_EDGE ( 'NONE', *, *, #234, .F. ) ;
#179 = APPROVAL ( #4, 'UNSPECIFIED' ) ;
#180 = FACE_OUTER_BOUND ( 'NONE', #232, .T. ) ;
#181 = EDGE_CURVE ( 'NONE', #111, #30, #54, .T. ) ;
#182 = DIRECTION ( 'NONE',  ( 1.000000000000000000, 1.156482317317871500E-016, -0.0000000000000000000 ) ) ;
#183 = CARTESIAN_POINT ( 'NONE',  ( 15.00000000000000400, -15.00000000000000000, -4.750000000000000000 ) ) ;
#184 = ORIENTED_EDGE ( 'NONE', *, *, #27, .T. ) ;
#185 = CARTESIAN_POINT ( 'NONE',  ( -15.00000000000000000, -15.00000000000000400, 4.750000000000000000 ) ) ;
#186 = CARTESIAN_POINT ( 'NONE',  ( -15.00000000000000000, -15.00000000000000400, -4.750000000000000000 ) ) ;
#187 = APPROVAL_STATUS ( 'not_yet_approved' ) ;
#188 = FACE_OUTER_BOUND ( 'NONE', #124, .T. ) ;
#189 = APPROVAL_ROLE ( '' ) ;
#190 = MANIFOLD_SOLID_BREP ( 'Boss-Extrude1', #12 ) ;
#191 = CARTESIAN_POINT ( 'NONE',  ( -15.00000000000000000, -15.00000000000000400, 4.750000000000000000 ) ) ;
#192 = APPROVAL_PERSON_ORGANIZATION ( #237, #86, #189 ) ;
#193 = ORIENTED_EDGE ( 'NONE', *, *, #100, .T. ) ;
#194 = CC_DESIGN_APPROVAL ( #179, ( #218 ) ) ;
#195 = LINE ( 'NONE', #132, #39 ) ;
#196 = AXIS2_PLACEMENT_3D ( 'NONE', #94, #57, #58 ) ;
#197 = CALENDAR_DATE ( 2017, 30, 10 ) ;
#198 = LINE ( 'NONE', #151, #165 ) ;
#199 = PERSON ( 'UNSPECIFIED', 'UNSPECIFIED', 'UNSPECIFIED', ('UNSPECIFIED'), ('UNSPECIFIED'), ('UNSPECIFIED') ) ;
#200 = DIRECTION ( 'NONE',  ( -1.000000000000000000, 0.0000000000000000000, 0.0000000000000000000 ) ) ;
#201 = ORGANIZATION ( 'UNSPECIFIED', 'UNSPECIFIED', '' ) ;
#202 = EDGE_LOOP ( 'NONE', ( #230, #48, #231, #135 ) ) ;
#203 = PLANE ( 'NONE',  #158 ) ;
#204 = CARTESIAN_POINT ( 'NONE',  ( 15.00000000000000400, -15.00000000000000000, 4.750000000000000000 ) ) ;
#205 = DATE_AND_TIME ( #105, #70 ) ;
#206 =( NAMED_UNIT ( * ) PLANE_ANGLE_UNIT ( ) SI_UNIT ( $, .RADIAN. ) );
#207 = DATE_AND_TIME ( #197, #8 ) ;
#208 =( NAMED_UNIT ( * ) SI_UNIT ( $, .STERADIAN. ) SOLID_ANGLE_UNIT ( ) );
#209 = APPLICATION_CONTEXT ( 'configuration controlled 3d designs of mechanical parts and assemblies' ) ;
#210 = DATE_AND_TIME ( #71, #66 ) ;
#211 = CC_DESIGN_PERSON_AND_ORGANIZATION_ASSIGNMENT ( #212, #118, ( #82 ) ) ;
#212 = PERSON_AND_ORGANIZATION ( #199, #201 ) ;
#213 = ORIENTED_EDGE ( 'NONE', *, *, #100, .F. ) ;
#214 = LOCAL_TIME ( 9, 17, 29.00000000000000000, #103 ) ;
#215 = ORIENTED_EDGE ( 'NONE', *, *, #59, .F. ) ;
#216 = APPROVAL_PERSON_ORGANIZATION ( #225, #79, #223 ) ;
#217 = DIRECTION ( 'NONE',  ( -0.0000000000000000000, -0.0000000000000000000, -1.000000000000000000 ) ) ;
#218 = SECURITY_CLASSIFICATION ( '', '', #113 ) ;
#219 = DIRECTION ( 'NONE',  ( 0.0000000000000000000, 1.000000000000000000, 0.0000000000000000000 ) ) ;
#220 = DIRECTION ( 'NONE',  ( 1.000000000000000000, 0.0000000000000000000, -0.0000000000000000000 ) ) ;
#221 = EDGE_LOOP ( 'NONE', ( #137, #193, #184, #127 ) ) ;
#222 = DATE_TIME_ROLE ( 'classification_date' ) ;
#223 = APPROVAL_ROLE ( '' ) ;
#224 = APPROVAL_STATUS ( 'not_yet_approved' ) ;
#225 = PERSON_AND_ORGANIZATION ( #199, #201 ) ;
#226 = FACE_OUTER_BOUND ( 'NONE', #221, .T. ) ;
#227 = MECHANICAL_CONTEXT ( 'NONE', #209, 'mechanical' ) ;
#228 = ADVANCED_FACE ( 'NONE', ( #60 ), #43, .F. ) ;
#229 = LINE ( 'NONE', #147, #161 ) ;
#230 = ORIENTED_EDGE ( 'NONE', *, *, #31, .F. ) ;
#231 = ORIENTED_EDGE ( 'NONE', *, *, #128, .F. ) ;
#232 = EDGE_LOOP ( 'NONE', ( #171, #144, #213, #91 ) ) ;
#233 = LINE ( 'NONE', #106, #101 ) ;
#234 = EDGE_CURVE ( 'NONE', #67, #73, #81, .T. ) ;
#235 = DIRECTION ( 'NONE',  ( -0.0000000000000000000, -1.000000000000000000, -0.0000000000000000000 ) ) ;
#236 = CARTESIAN_POINT ( 'NONE',  ( -15.00000000000000000, -15.00000000000000400, 4.750000000000000000 ) ) ;
#237 = PERSON_AND_ORGANIZATION ( #199, #201 ) ;
ENDSEC;
END-ISO-10303-21;
