ISO-10303-21;
HEADER;
FILE_DESCRIPTION (( 'STEP AP203' ),
    '1' );
FILE_NAME ('Web Model 47684_14809.step',
    '2020-10-07T17:27:41',
    ( '' ),
    ( '' ),
    'SwSTEP 2.0',
    'SolidWorks 2018',
    '' );
FILE_SCHEMA (( 'CONFIG_CONTROL_DESIGN' ));
ENDSEC;

DATA;
#1 = UNCERTAINTY_MEASURE_WITH_UNIT (LENGTH_MEASURE( 1.000000000000000082E-05 ), #23, 'distance_accuracy_value', 'NONE');
#2 = CALENDAR_DATE ( 2020, 7, 10 ) ;
#3 = CC_DESIGN_PERSON_AND_ORGANIZATION_ASSIGNMENT ( #62, #160, ( #82 ) ) ;
#4 = COORDINATED_UNIVERSAL_TIME_OFFSET ( 5, 0, .BEHIND. ) ;
#5 = AXIS2_PLACEMENT_3D ( 'NONE', #18, #75, #43 ) ;
#6 = EDGE_LOOP ( 'NONE', ( #128, #86, #97, #35 ) ) ;
#7 = CARTESIAN_POINT ( 'NONE',  ( 0.0000000000000000000, 0.0000000000000000000, -1.500000000000000000 ) ) ;
#8 = DIRECTION ( 'NONE',  ( 0.0000000000000000000, 0.0000000000000000000, 1.000000000000000000 ) ) ;
#9 = EDGE_LOOP ( 'NONE', ( #126, #130, #122, #73 ) ) ;
#10 = PLANE ( 'NONE',  #40 ) ;
#11 = AXIS2_PLACEMENT_3D ( 'NONE', #91, #107, #78 ) ;
#12 = PERSON_AND_ORGANIZATION ( #67, #14 ) ;
#13 = EDGE_CURVE ( 'NONE', #117, #93, #17, .T. ) ;
#14 = ORGANIZATION ( 'UNSPECIFIED', 'UNSPECIFIED', '' ) ;
#15 = DIRECTION ( 'NONE',  ( -0.0000000000000000000, -0.0000000000000000000, -1.000000000000000000 ) ) ;
#16 =( GEOMETRIC_REPRESENTATION_CONTEXT ( 3 ) GLOBAL_UNCERTAINTY_ASSIGNED_CONTEXT ( ( #1 ) ) GLOBAL_UNIT_ASSIGNED_CONTEXT ( ( #23, #108, #110 ) ) REPRESENTATION_CONTEXT ( 'NONE', 'WORKASPACE' ) );
#17 = CIRCLE ( 'NONE', #65, 25.00000000000000000 ) ;
#18 = CARTESIAN_POINT ( 'NONE',  ( 0.0000000000000000000, 0.0000000000000000000, -1.500000000000000000 ) ) ;
#19 = APPLICATION_PROTOCOL_DEFINITION ( 'international standard', 'config_control_design', 1994, #63 ) ;
#20 = CARTESIAN_POINT ( 'NONE',  ( -25.00000000000000000, 0.0000000000000000000, -1.500000000000000000 ) ) ;
#21 = FACE_OUTER_BOUND ( 'NONE', #6, .T. ) ;
#22 = ADVANCED_FACE ( 'NONE', ( #64 ), #39, .T. ) ;
#23 =( LENGTH_UNIT ( ) NAMED_UNIT ( * ) SI_UNIT ( .MILLI., .METRE. ) );
#24 = DATE_TIME_ROLE ( 'classification_date' ) ;
#25 = APPROVAL_PERSON_ORGANIZATION ( #168, #118, #150 ) ;
#26 = VECTOR ( 'NONE', #15, 1000.000000000000000 ) ;
#27 = CC_DESIGN_PERSON_AND_ORGANIZATION_ASSIGNMENT ( #131, #161, ( #82 ) ) ;
#28 = CC_DESIGN_DATE_AND_TIME_ASSIGNMENT ( #166, #147, ( #85 ) ) ;
#29 = AXIS2_PLACEMENT_3D ( 'NONE', #139, #157, #30 ) ;
#30 = DIRECTION ( 'NONE',  ( 1.000000000000000000, 0.0000000000000000000, 0.0000000000000000000 ) ) ;
#31 = PERSON_AND_ORGANIZATION ( #67, #14 ) ;
#32 = APPROVAL_DATE_TIME ( #114, #66 ) ;
#33 = DIRECTION ( 'NONE',  ( 0.0000000000000000000, 0.0000000000000000000, 1.000000000000000000 ) ) ;
#34 = COORDINATED_UNIVERSAL_TIME_OFFSET ( 5, 0, .BEHIND. ) ;
#35 = ORIENTED_EDGE ( 'NONE', *, *, #13, .T. ) ;
#36 = DIRECTION ( 'NONE',  ( 1.000000000000000000, 0.0000000000000000000, 0.0000000000000000000 ) ) ;
#37 = SECURITY_CLASSIFICATION ( '', '', #79 ) ;
#38 = APPROVAL_PERSON_ORGANIZATION ( #101, #66, #123 ) ;
#39 = CYLINDRICAL_SURFACE ( 'NONE', #11, 25.00000000000000000 ) ;
#40 = AXIS2_PLACEMENT_3D ( 'NONE', #134, #33, #49 ) ;
#41 = EDGE_CURVE ( 'NONE', #70, #117, #81, .T. ) ;
#42 = DATE_AND_TIME ( #76, #135 ) ;
#43 = DIRECTION ( 'NONE',  ( 1.000000000000000000, 0.0000000000000000000, -0.0000000000000000000 ) ) ;
#44 = CARTESIAN_POINT ( 'NONE',  ( -25.00000000000000000, 0.0000000000000000000, 1.500000000000000000 ) ) ;
#45 = DIRECTION ( 'NONE',  ( -0.0000000000000000000, -0.0000000000000000000, -1.000000000000000000 ) ) ;
#46 = LOCAL_TIME ( 13, 27, 41.00000000000000000, #116 ) ;
#47 = PERSON_AND_ORGANIZATION_ROLE ( 'creator' ) ;
#48 = ORIENTED_EDGE ( 'NONE', *, *, #120, .F. ) ;
#49 = DIRECTION ( 'NONE',  ( 1.000000000000000000, 0.0000000000000000000, -0.0000000000000000000 ) ) ;
#50 = DIRECTION ( 'NONE',  ( -1.000000000000000000, 0.0000000000000000000, 0.0000000000000000000 ) ) ;
#51 = AXIS2_PLACEMENT_3D ( 'NONE', #127, #45, #50 ) ;
#52 = DESIGN_CONTEXT ( 'detailed design', #63, 'design' ) ;
#53 = EDGE_CURVE ( 'NONE', #102, #93, #57, .T. ) ;
#54 = CIRCLE ( 'NONE', #99, 25.00000000000000000 ) ;
#55 = MANIFOLD_SOLID_BREP ( 'Boss-Extrude1', #113 ) ;
#56 = PLANE ( 'NONE',  #5 ) ;
#57 = LINE ( 'NONE', #170, #26 ) ;
#58 = CC_DESIGN_PERSON_AND_ORGANIZATION_ASSIGNMENT ( #156, #94, ( #37 ) ) ;
#59 = CARTESIAN_POINT ( 'NONE',  ( 25.00000000000000000, 3.061616997868383043E-15, 1.500000000000000000 ) ) ;
#60 = APPROVAL_STATUS ( 'not_yet_approved' ) ;
#61 = APPLICATION_CONTEXT ( 'configuration controlled 3d designs of mechanical parts and assemblies' ) ;
#62 = PERSON_AND_ORGANIZATION ( #67, #14 ) ;
#63 = APPLICATION_CONTEXT ( 'configuration controlled 3d designs of mechanical parts and assemblies' ) ;
#64 = FACE_OUTER_BOUND ( 'NONE', #9, .T. ) ;
#65 = AXIS2_PLACEMENT_3D ( 'NONE', #143, #169, #129 ) ;
#66 = APPROVAL ( #171, 'UNSPECIFIED' ) ;
#67 = PERSON ( 'UNSPECIFIED', 'UNSPECIFIED', 'UNSPECIFIED', ('UNSPECIFIED'), ('UNSPECIFIED'), ('UNSPECIFIED') ) ;
#68 = EDGE_CURVE ( 'NONE', #102, #70, #96, .T. ) ;
#69 = LOCAL_TIME ( 13, 27, 41.00000000000000000, #34 ) ;
#70 = VERTEX_POINT ( 'NONE', #121 ) ;
#71 = APPROVAL_DATE_TIME ( #109, #118 ) ;
#72 = CYLINDRICAL_SURFACE ( 'NONE', #51, 25.00000000000000000 ) ;
#73 = ORIENTED_EDGE ( 'NONE', *, *, #41, .F. ) ;
#74 = CC_DESIGN_APPROVAL ( #118, ( #85 ) ) ;
#75 = DIRECTION ( 'NONE',  ( 0.0000000000000000000, 0.0000000000000000000, 1.000000000000000000 ) ) ;
#76 = CALENDAR_DATE ( 2020, 7, 10 ) ;
#77 = CC_DESIGN_APPROVAL ( #66, ( #37 ) ) ;
#78 = DIRECTION ( 'NONE',  ( -1.000000000000000000, 0.0000000000000000000, 0.0000000000000000000 ) ) ;
#79 = SECURITY_CLASSIFICATION_LEVEL ( 'unclassified' ) ;
#80 = ADVANCED_FACE ( 'NONE', ( #154 ), #56, .F. ) ;
#81 = LINE ( 'NONE', #44, #105 ) ;
#82 = PRODUCT_DEFINITION_FORMATION_WITH_SPECIFIED_SOURCE ( 'ANY', '', #133, .NOT_KNOWN. ) ;
#83 = DIRECTION ( 'NONE',  ( 0.0000000000000000000, 0.0000000000000000000, 1.000000000000000000 ) ) ;
#84 = DIRECTION ( 'NONE',  ( 0.0000000000000000000, 0.0000000000000000000, 1.000000000000000000 ) ) ;
#85 = PRODUCT_DEFINITION ( 'UNKNOWN', '', #82, #52 ) ;
#86 = ORIENTED_EDGE ( 'NONE', *, *, #137, .F. ) ;
#87 = AXIS2_PLACEMENT_3D ( 'NONE', #145, #83, #98 ) ;
#88 = PRODUCT_RELATED_PRODUCT_CATEGORY ( 'detail', '', ( #133 ) ) ;
#89 = COORDINATED_UNIVERSAL_TIME_OFFSET ( 5, 0, .BEHIND. ) ;
#90 = ORIENTED_EDGE ( 'NONE', *, *, #13, .F. ) ;
#91 = CARTESIAN_POINT ( 'NONE',  ( 0.0000000000000000000, 0.0000000000000000000, 1.500000000000000000 ) ) ;
#92 = APPROVAL ( #60, 'UNSPECIFIED' ) ;
#93 = VERTEX_POINT ( 'NONE', #172 ) ;
#94 = PERSON_AND_ORGANIZATION_ROLE ( 'classification_officer' ) ;
#95 = CC_DESIGN_PERSON_AND_ORGANIZATION_ASSIGNMENT ( #165, #47, ( #85 ) ) ;
#96 = CIRCLE ( 'NONE', #29, 25.00000000000000000 ) ;
#97 = ORIENTED_EDGE ( 'NONE', *, *, #41, .T. ) ;
#98 = DIRECTION ( 'NONE',  ( 1.000000000000000000, 0.0000000000000000000, 0.0000000000000000000 ) ) ;
#99 = AXIS2_PLACEMENT_3D ( 'NONE', #112, #84, #173 ) ;
#100 = SHAPE_DEFINITION_REPRESENTATION ( #174, #167 ) ;
#101 = PERSON_AND_ORGANIZATION ( #67, #14 ) ;
#102 = VERTEX_POINT ( 'NONE', #59 ) ;
#103 = CC_DESIGN_SECURITY_CLASSIFICATION ( #37, ( #82 ) ) ;
#104 = CC_DESIGN_PERSON_AND_ORGANIZATION_ASSIGNMENT ( #31, #132, ( #133 ) ) ;
#105 = VECTOR ( 'NONE', #142, 1000.000000000000000 ) ;
#106 = ORIENTED_EDGE ( 'NONE', *, *, #68, .T. ) ;
#107 = DIRECTION ( 'NONE',  ( -0.0000000000000000000, -0.0000000000000000000, -1.000000000000000000 ) ) ;
#108 =( NAMED_UNIT ( * ) PLANE_ANGLE_UNIT ( ) SI_UNIT ( $, .RADIAN. ) );
#109 = DATE_AND_TIME ( #138, #149 ) ;
#110 =( NAMED_UNIT ( * ) SI_UNIT ( $, .STERADIAN. ) SOLID_ANGLE_UNIT ( ) );
#111 = CALENDAR_DATE ( 2020, 7, 10 ) ;
#112 = CARTESIAN_POINT ( 'NONE',  ( 0.0000000000000000000, 0.0000000000000000000, 1.500000000000000000 ) ) ;
#113 = CLOSED_SHELL ( 'NONE', ( #22, #162, #148, #80 ) ) ;
#114 = DATE_AND_TIME ( #111, #144 ) ;
#115 = CC_DESIGN_APPROVAL ( #92, ( #82 ) ) ;
#116 = COORDINATED_UNIVERSAL_TIME_OFFSET ( 5, 0, .BEHIND. ) ;
#117 = VERTEX_POINT ( 'NONE', #20 ) ;
#118 = APPROVAL ( #146, 'UNSPECIFIED' ) ;
#119 = DATE_AND_TIME ( #2, #69 ) ;
#120 = EDGE_CURVE ( 'NONE', #93, #117, #164, .T. ) ;
#121 = CARTESIAN_POINT ( 'NONE',  ( -25.00000000000000000, 0.0000000000000000000, 1.500000000000000000 ) ) ;
#122 = ORIENTED_EDGE ( 'NONE', *, *, #120, .T. ) ;
#123 = APPROVAL_ROLE ( '' ) ;
#124 = MECHANICAL_CONTEXT ( 'NONE', #61, 'mechanical' ) ;
#125 = COORDINATED_UNIVERSAL_TIME_OFFSET ( 5, 0, .BEHIND. ) ;
#126 = ORIENTED_EDGE ( 'NONE', *, *, #68, .F. ) ;
#127 = CARTESIAN_POINT ( 'NONE',  ( 0.0000000000000000000, 0.0000000000000000000, 1.500000000000000000 ) ) ;
#128 = ORIENTED_EDGE ( 'NONE', *, *, #53, .F. ) ;
#129 = DIRECTION ( 'NONE',  ( 1.000000000000000000, 0.0000000000000000000, 0.0000000000000000000 ) ) ;
#130 = ORIENTED_EDGE ( 'NONE', *, *, #53, .T. ) ;
#131 = PERSON_AND_ORGANIZATION ( #67, #14 ) ;
#132 = PERSON_AND_ORGANIZATION_ROLE ( 'design_owner' ) ;
#133 = PRODUCT ( 'Web Model 47684_14809', 'Web Model 47684_14809', '', ( #124 ) ) ;
#134 = CARTESIAN_POINT ( 'NONE',  ( 0.0000000000000000000, 0.0000000000000000000, 1.500000000000000000 ) ) ;
#135 = LOCAL_TIME ( 13, 27, 41.00000000000000000, #125 ) ;
#136 = EDGE_LOOP ( 'NONE', ( #90, #48 ) ) ;
#137 = EDGE_CURVE ( 'NONE', #70, #102, #54, .T. ) ;
#138 = CALENDAR_DATE ( 2020, 7, 10 ) ;
#139 = CARTESIAN_POINT ( 'NONE',  ( 0.0000000000000000000, 0.0000000000000000000, 1.500000000000000000 ) ) ;
#140 = APPROVAL_DATE_TIME ( #119, #92 ) ;
#141 = EDGE_LOOP ( 'NONE', ( #159, #106 ) ) ;
#142 = DIRECTION ( 'NONE',  ( -0.0000000000000000000, -0.0000000000000000000, -1.000000000000000000 ) ) ;
#143 = CARTESIAN_POINT ( 'NONE',  ( 0.0000000000000000000, 0.0000000000000000000, -1.500000000000000000 ) ) ;
#144 = LOCAL_TIME ( 13, 27, 41.00000000000000000, #4 ) ;
#145 = CARTESIAN_POINT ( 'NONE',  ( 0.0000000000000000000, 0.0000000000000000000, 0.0000000000000000000 ) ) ;
#146 = APPROVAL_STATUS ( 'not_yet_approved' ) ;
#147 = DATE_TIME_ROLE ( 'creation_date' ) ;
#148 = ADVANCED_FACE ( 'NONE', ( #158 ), #10, .T. ) ;
#149 = LOCAL_TIME ( 13, 27, 41.00000000000000000, #89 ) ;
#150 = APPROVAL_ROLE ( '' ) ;
#151 = APPLICATION_PROTOCOL_DEFINITION ( 'international standard', 'config_control_design', 1994, #61 ) ;
#152 = APPROVAL_PERSON_ORGANIZATION ( #12, #92, #163 ) ;
#153 = CC_DESIGN_DATE_AND_TIME_ASSIGNMENT ( #42, #24, ( #37 ) ) ;
#154 = FACE_OUTER_BOUND ( 'NONE', #136, .T. ) ;
#155 = AXIS2_PLACEMENT_3D ( 'NONE', #7, #8, #36 ) ;
#156 = PERSON_AND_ORGANIZATION ( #67, #14 ) ;
#157 = DIRECTION ( 'NONE',  ( 0.0000000000000000000, 0.0000000000000000000, 1.000000000000000000 ) ) ;
#158 = FACE_OUTER_BOUND ( 'NONE', #141, .T. ) ;
#159 = ORIENTED_EDGE ( 'NONE', *, *, #137, .T. ) ;
#160 = PERSON_AND_ORGANIZATION_ROLE ( 'design_supplier' ) ;
#161 = PERSON_AND_ORGANIZATION_ROLE ( 'creator' ) ;
#162 = ADVANCED_FACE ( 'NONE', ( #21 ), #72, .T. ) ;
#163 = APPROVAL_ROLE ( '' ) ;
#164 = CIRCLE ( 'NONE', #155, 25.00000000000000000 ) ;
#165 = PERSON_AND_ORGANIZATION ( #67, #14 ) ;
#166 = DATE_AND_TIME ( #175, #46 ) ;
#167 = ADVANCED_BREP_SHAPE_REPRESENTATION ( 'Web Model 47684_14809', ( #55, #87 ), #16 ) ;
#168 = PERSON_AND_ORGANIZATION ( #67, #14 ) ;
#169 = DIRECTION ( 'NONE',  ( 0.0000000000000000000, 0.0000000000000000000, 1.000000000000000000 ) ) ;
#170 = CARTESIAN_POINT ( 'NONE',  ( 25.00000000000000000, 3.061616997868383043E-15, 1.500000000000000000 ) ) ;
#171 = APPROVAL_STATUS ( 'not_yet_approved' ) ;
#172 = CARTESIAN_POINT ( 'NONE',  ( 25.00000000000000000, 3.061616997868383043E-15, -1.500000000000000000 ) ) ;
#173 = DIRECTION ( 'NONE',  ( 1.000000000000000000, 0.0000000000000000000, 0.0000000000000000000 ) ) ;
#174 = PRODUCT_DEFINITION_SHAPE ( 'NONE', 'NONE',  #85 ) ;
#175 = CALENDAR_DATE ( 2020, 7, 10 ) ;
ENDSEC;
END-ISO-10303-21;
