ISO-10303-21;
HEADER;
FILE_DESCRIPTION (( 'STEP AP203' ),
    '1' );
FILE_NAME ('4294-E0W.STEP',
    '2015-05-29T14:24:03',
    ( 'admin' ),
    ( '' ),
    'SwSTEP 2.0',
    'SolidWorks 2014',
    '' );
FILE_SCHEMA (( 'CONFIG_CONTROL_DESIGN' ));
ENDSEC;

DATA;
#1 = DIRECTION ( 'NONE',  ( 0.0000000000000000000, 0.0000000000000000000, -1.000000000000000000 ) ) ;
#2 = CALENDAR_DATE ( 2015, 29, 5 ) ;
#3 = PERSON_AND_ORGANIZATION ( #169, #52 ) ;
#4 = VERTEX_POINT ( 'NONE', #34 ) ;
#5 = EDGE_CURVE ( 'NONE', #7, #256, #270, .T. ) ;
#6 = CARTESIAN_POINT ( 'NONE',  ( -5.349999999999999600, 0.0000000000000000000, 0.0000000000000000000 ) ) ;
#7 = VERTEX_POINT ( 'NONE', #121 ) ;
#8 = CARTESIAN_POINT ( 'NONE',  ( -5.349999999999999600, 0.0000000000000000000, 0.0000000000000000000 ) ) ;
#9 = EDGE_CURVE ( 'NONE', #31, #7, #131, .T. ) ;
#10 = LOCAL_TIME ( 10, 24, 3.000000000000000000, #254 ) ;
#11 = CC_DESIGN_DATE_AND_TIME_ASSIGNMENT ( #296, #46, ( #281 ) ) ;
#12 = ADVANCED_FACE ( 'NONE', ( #246 ), #129, .T. ) ;
#13 = CYLINDRICAL_SURFACE ( 'NONE', #156, 25.39999999999999900 ) ;
#14 = TOROIDAL_SURFACE ( 'NONE', #120, -0.07773599356154965700, 46.00000000000000000 ) ;
#15 = ORIENTED_EDGE ( 'NONE', *, *, #230, .F. ) ;
#16 = ADVANCED_BREP_SHAPE_REPRESENTATION ( '4294-E0W', ( #241, #51 ), #130 ) ;
#17 = DIRECTION ( 'NONE',  ( 1.000000000000000000, 0.0000000000000000000, 0.0000000000000000000 ) ) ;
#18 = ORIENTED_EDGE ( 'NONE', *, *, #232, .F. ) ;
#19 = CC_DESIGN_PERSON_AND_ORGANIZATION_ASSIGNMENT ( #149, #200, ( #281 ) ) ;
#20 = ORIENTED_EDGE ( 'NONE', *, *, #243, .F. ) ;
#21 = CARTESIAN_POINT ( 'NONE',  ( -40.64993431642381000, 0.0000000000000000000, 0.0000000000000000000 ) ) ;
#22 = DIRECTION ( 'NONE',  ( 1.000000000000000000, 0.0000000000000000000, 0.0000000000000000000 ) ) ;
#23 = SECURITY_CLASSIFICATION ( '', '', #199 ) ;
#24 = DIRECTION ( 'NONE',  ( 0.0000000000000000000, 0.0000000000000000000, 1.000000000000000000 ) ) ;
#25 = CARTESIAN_POINT ( 'NONE',  ( -2.600000000000005000, 0.0000000000000000000, 0.0000000000000000000 ) ) ;
#26 = PERSON_AND_ORGANIZATION_ROLE ( 'classification_officer' ) ;
#27 = EDGE_CURVE ( 'NONE', #4, #117, #269, .T. ) ;
#28 = APPROVAL_DATE_TIME ( #208, #167 ) ;
#29 = CC_DESIGN_SECURITY_CLASSIFICATION ( #23, ( #191 ) ) ;
#30 = CALENDAR_DATE ( 2015, 29, 5 ) ;
#31 = VERTEX_POINT ( 'NONE', #209 ) ;
#32 = VERTEX_POINT ( 'NONE', #217 ) ;
#33 = CALENDAR_DATE ( 2015, 29, 5 ) ;
#34 = CARTESIAN_POINT ( 'NONE',  ( 5.349999999999999600, 0.0000000000000000000, 0.0000000000000000000 ) ) ;
#35 = ORIENTED_EDGE ( 'NONE', *, *, #202, .F. ) ;
#36 = ORIENTED_EDGE ( 'NONE', *, *, #27, .T. ) ;
#37 = ORIENTED_EDGE ( 'NONE', *, *, #234, .F. ) ;
#38 = CARTESIAN_POINT ( 'NONE',  ( -2.600000000000005000, 3.110602869834276900E-015, -25.39999999999999900 ) ) ;
#39 = UNCERTAINTY_MEASURE_WITH_UNIT (LENGTH_MEASURE( 1.000000000000000100E-005 ), #280, 'distance_accuracy_value', 'NONE');
#40 = VERTEX_POINT ( 'NONE', #252 ) ;
#41 = EDGE_LOOP ( 'NONE', ( #98, #88 ) ) ;
#42 = EDGE_CURVE ( 'NONE', #40, #146, #231, .T. ) ;
#43 = ADVANCED_FACE ( 'NONE', ( #250 ), #192, .T. ) ;
#44 = CARTESIAN_POINT ( 'NONE',  ( 0.0000000000000000000, 0.0000000000000000000, 0.0000000000000000000 ) ) ;
#45 = AXIS2_PLACEMENT_3D ( 'NONE', #25, #157, #153 ) ;
#46 = DATE_TIME_ROLE ( 'creation_date' ) ;
#47 = FACE_OUTER_BOUND ( 'NONE', #267, .T. ) ;
#48 = AXIS2_PLACEMENT_3D ( 'NONE', #50, #166, #107 ) ;
#49 = EDGE_LOOP ( 'NONE', ( #194, #298, #147, #277 ) ) ;
#50 = CARTESIAN_POINT ( 'NONE',  ( -2.212789195435390000, 0.0000000000000000000, 0.0000000000000000000 ) ) ;
#51 = AXIS2_PLACEMENT_3D ( 'NONE', #44, #195, #127 ) ;
#52 = ORGANIZATION ( 'UNSPECIFIED', 'UNSPECIFIED', '' ) ;
#53 = LOCAL_TIME ( 10, 24, 3.000000000000000000, #196 ) ;
#54 = CC_DESIGN_PERSON_AND_ORGANIZATION_ASSIGNMENT ( #265, #198, ( #56 ) ) ;
#55 = EDGE_CURVE ( 'NONE', #32, #256, #210, .T. ) ;
#56 = PRODUCT ( '4294-E0W', '4294-E0W', '', ( #238 ) ) ;
#57 = CC_DESIGN_APPROVAL ( #74, ( #281 ) ) ;
#58 = CIRCLE ( 'NONE', #100, 25.39999999999999900 ) ;
#59 = CIRCLE ( 'NONE', #48, 25.19252073145167300 ) ;
#60 = CARTESIAN_POINT ( 'NONE',  ( -5.100000000000010300, 0.0000000000000000000, 0.0000000000000000000 ) ) ;
#61 = AXIS2_PLACEMENT_3D ( 'NONE', #115, #62, #24 ) ;
#62 = DIRECTION ( 'NONE',  ( -1.000000000000000000, -0.0000000000000000000, -0.0000000000000000000 ) ) ;
#63 = COORDINATED_UNIVERSAL_TIME_OFFSET ( 5, 0, .BEHIND. ) ;
#64 = CARTESIAN_POINT ( 'NONE',  ( -2.212789195435390000, 3.085193987622563000E-015, -25.19252073145167300 ) ) ;
#65 = CIRCLE ( 'NONE', #61, 25.39999999999999900 ) ;
#66 = DIRECTION ( 'NONE',  ( 0.0000000000000000000, 0.0000000000000000000, 1.000000000000000000 ) ) ;
#67 = PERSON_AND_ORGANIZATION_ROLE ( 'design_supplier' ) ;
#68 = DIRECTION ( 'NONE',  ( -1.000000000000000000, -0.0000000000000000000, -0.0000000000000000000 ) ) ;
#69 = DIRECTION ( 'NONE',  ( 1.000000000000000000, 0.0000000000000000000, 0.0000000000000000000 ) ) ;
#70 = VECTOR ( 'NONE', #276, 1000.000000000000100 ) ;
#71 = CARTESIAN_POINT ( 'NONE',  ( -2.600000000000005000, 0.0000000000000000000, 25.39999999999999900 ) ) ;
#72 = ORIENTED_EDGE ( 'NONE', *, *, #232, .T. ) ;
#73 = CALENDAR_DATE ( 2015, 29, 5 ) ;
#74 = APPROVAL ( #99, 'UNSPECIFIED' ) ;
#75 = PERSON_AND_ORGANIZATION ( #169, #52 ) ;
#76 = APPROVAL_STATUS ( 'not_yet_approved' ) ;
#77 = CIRCLE ( 'NONE', #90, 25.15000000000000900 ) ;
#78 = VECTOR ( 'NONE', #228, 1000.000000000000000 ) ;
#79 = ADVANCED_FACE ( 'NONE', ( #188 ), #172, .T. ) ;
#80 = PRODUCT_RELATED_PRODUCT_CATEGORY ( 'detail', '', ( #56 ) ) ;
#81 = ADVANCED_FACE ( 'NONE', ( #229 ), #150, .T. ) ;
#82 = CARTESIAN_POINT ( 'NONE',  ( -5.349999999999999600, 0.0000000000000000000, 0.0000000000000000000 ) ) ;
#83 = SHAPE_DEFINITION_REPRESENTATION ( #105, #16 ) ;
#84 = DIRECTION ( 'NONE',  ( -1.000000000000000000, -0.0000000000000000000, -0.0000000000000000000 ) ) ;
#85 = DIRECTION ( 'NONE',  ( -1.000000000000000000, -0.0000000000000000000, -0.0000000000000000000 ) ) ;
#86 = ADVANCED_FACE ( 'NONE', ( #218 ), #158, .F. ) ;
#87 = AXIS2_PLACEMENT_3D ( 'NONE', #8, #222, #295 ) ;
#88 = ORIENTED_EDGE ( 'NONE', *, *, #9, .T. ) ;
#89 = APPLICATION_CONTEXT ( 'configuration controlled 3d designs of mechanical parts and assemblies' ) ;
#90 = AXIS2_PLACEMENT_3D ( 'NONE', #6, #190, #193 ) ;
#91 = FACE_OUTER_BOUND ( 'NONE', #251, .T. ) ;
#92 = ORIENTED_EDGE ( 'NONE', *, *, #55, .F. ) ;
#93 = CC_DESIGN_PERSON_AND_ORGANIZATION_ASSIGNMENT ( #271, #67, ( #191 ) ) ;
#94 = CONICAL_SURFACE ( 'NONE', #87, 25.15000000000000900, 0.7853981633974482800 ) ;
#95 = EDGE_CURVE ( 'NONE', #146, #32, #244, .T. ) ;
#96 = EDGE_LOOP ( 'NONE', ( #37, #18, #285, #138 ) ) ;
#97 = EDGE_LOOP ( 'NONE', ( #287, #259, #123, #183 ) ) ;
#98 = ORIENTED_EDGE ( 'NONE', *, *, #243, .T. ) ;
#99 = APPROVAL_STATUS ( 'not_yet_approved' ) ;
#100 = AXIS2_PLACEMENT_3D ( 'NONE', #60, #22, #161 ) ;
#101 = APPROVAL_DATE_TIME ( #162, #74 ) ;
#102 = LOCAL_TIME ( 10, 24, 3.000000000000000000, #240 ) ;
#103 = AXIS2_PLACEMENT_3D ( 'NONE', #180, #69, #133 ) ;
#104 = LINE ( 'NONE', #233, #139 ) ;
#105 = PRODUCT_DEFINITION_SHAPE ( 'NONE', 'NONE',  #281 ) ;
#106 = CARTESIAN_POINT ( 'NONE',  ( -2.212789195435390000, 0.0000000000000000000, 0.0000000000000000000 ) ) ;
#107 = DIRECTION ( 'NONE',  ( 0.0000000000000000000, 0.0000000000000000000, 1.000000000000000000 ) ) ;
#108 = ADVANCED_FACE ( 'NONE', ( #176 ), #116, .T. ) ;
#109 = CALENDAR_DATE ( 2015, 29, 5 ) ;
#110 = DIRECTION ( 'NONE',  ( -1.000000000000000000, -0.0000000000000000000, -0.0000000000000000000 ) ) ;
#111 = CIRCLE ( 'NONE', #181, 46.00000000000000000 ) ;
#112 = CARTESIAN_POINT ( 'NONE',  ( -5.100000000000010300, 3.110602869834276900E-015, -25.39999999999999900 ) ) ;
#113 = CC_DESIGN_PERSON_AND_ORGANIZATION_ASSIGNMENT ( #3, #26, ( #23 ) ) ;
#114 = LOCAL_TIME ( 10, 24, 3.000000000000000000, #215 ) ;
#115 = CARTESIAN_POINT ( 'NONE',  ( -2.600000000000005000, 0.0000000000000000000, 0.0000000000000000000 ) ) ;
#116 = CONICAL_SURFACE ( 'NONE', #103, 25.15000000000000900, 0.7853981633974482800 ) ;
#117 = VERTEX_POINT ( 'NONE', #64 ) ;
#118 = ORIENTED_EDGE ( 'NONE', *, *, #260, .T. ) ;
#119 = APPROVAL_PERSON_ORGANIZATION ( #186, #178, #144 ) ;
#120 = AXIS2_PLACEMENT_3D ( 'NONE', #235, #85, #143 ) ;
#121 = CARTESIAN_POINT ( 'NONE',  ( -5.349999999999999600, 0.0000000000000000000, -25.15000000000000900 ) ) ;
#122 = AXIS2_PLACEMENT_3D ( 'NONE', #173, #219, #261 ) ;
#123 = ORIENTED_EDGE ( 'NONE', *, *, #95, .F. ) ;
#124 = AXIS2_PLACEMENT_3D ( 'NONE', #189, #159, #132 ) ;
#125 = APPROVAL_STATUS ( 'not_yet_approved' ) ;
#126 = ORIENTED_EDGE ( 'NONE', *, *, #5, .T. ) ;
#127 = DIRECTION ( 'NONE',  ( 1.000000000000000000, 0.0000000000000000000, 0.0000000000000000000 ) ) ;
#128 = CIRCLE ( 'NONE', #197, 25.39999999999999900 ) ;
#129 = TOROIDAL_SURFACE ( 'NONE', #224, -0.07773599356154965700, 46.00000000000000000 ) ;
#130 =( GEOMETRIC_REPRESENTATION_CONTEXT ( 3 ) GLOBAL_UNCERTAINTY_ASSIGNED_CONTEXT ( ( #39 ) ) GLOBAL_UNIT_ASSIGNED_CONTEXT ( ( #280, #279, #282 ) ) REPRESENTATION_CONTEXT ( 'NONE', 'WORKASPACE' ) );
#131 = CIRCLE ( 'NONE', #212, 25.15000000000000900 ) ;
#132 = DIRECTION ( 'NONE',  ( 0.0000000000000000000, 0.0000000000000000000, 1.000000000000000000 ) ) ;
#133 = DIRECTION ( 'NONE',  ( 0.0000000000000000000, 0.0000000000000000000, -1.000000000000000000 ) ) ;
#134 = FACE_OUTER_BOUND ( 'NONE', #292, .T. ) ;
#135 = EDGE_CURVE ( 'NONE', #256, #207, #128, .T. ) ;
#136 = CARTESIAN_POINT ( 'NONE',  ( -2.600000000000005000, 0.0000000000000000000, 25.39999999999999900 ) ) ;
#137 = DIRECTION ( 'NONE',  ( -0.0000000000000000000, 1.000000000000000000, 1.224646799147353200E-016 ) ) ;
#138 = ORIENTED_EDGE ( 'NONE', *, *, #253, .F. ) ;
#139 = VECTOR ( 'NONE', #213, 1000.000000000000000 ) ;
#140 = CARTESIAN_POINT ( 'NONE',  ( -40.64993431642381000, 0.0000000000000000000, -0.07773599356154965700 ) ) ;
#141 = AXIS2_PLACEMENT_3D ( 'NONE', #291, #137, #283 ) ;
#142 = APPROVAL_ROLE ( '' ) ;
#143 = DIRECTION ( 'NONE',  ( 0.0000000000000000000, 0.0000000000000000000, 1.000000000000000000 ) ) ;
#144 = APPROVAL_ROLE ( '' ) ;
#145 = CARTESIAN_POINT ( 'NONE',  ( -2.600000000000005000, 0.0000000000000000000, 0.0000000000000000000 ) ) ;
#146 = VERTEX_POINT ( 'NONE', #136 ) ;
#147 = ORIENTED_EDGE ( 'NONE', *, *, #135, .F. ) ;
#148 = LOCAL_TIME ( 10, 24, 3.000000000000000000, #63 ) ;
#149 = PERSON_AND_ORGANIZATION ( #169, #52 ) ;
#150 = CONICAL_SURFACE ( 'NONE', #124, 25.39999999999999900, 0.4918992894063682900 ) ;
#151 = ORIENTED_EDGE ( 'NONE', *, *, #55, .T. ) ;
#152 = EDGE_LOOP ( 'NONE', ( #92, #221, #262, #284 ) ) ;
#153 = DIRECTION ( 'NONE',  ( 0.0000000000000000000, 0.0000000000000000000, 1.000000000000000000 ) ) ;
#154 = APPROVAL_ROLE ( '' ) ;
#155 = LINE ( 'NONE', #38, #78 ) ;
#156 = AXIS2_PLACEMENT_3D ( 'NONE', #301, #110, #66 ) ;
#157 = DIRECTION ( 'NONE',  ( -1.000000000000000000, -0.0000000000000000000, -0.0000000000000000000 ) ) ;
#158 = PLANE ( 'NONE',  #175 ) ;
#159 = DIRECTION ( 'NONE',  ( -1.000000000000000000, -0.0000000000000000000, -0.0000000000000000000 ) ) ;
#160 = APPLICATION_PROTOCOL_DEFINITION ( 'international standard', 'config_control_design', 1994, #89 ) ;
#161 = DIRECTION ( 'NONE',  ( 0.0000000000000000000, 0.0000000000000000000, -1.000000000000000000 ) ) ;
#162 = DATE_AND_TIME ( #30, #10 ) ;
#163 = CARTESIAN_POINT ( 'NONE',  ( -5.349999999999999600, 0.0000000000000000000, 0.0000000000000000000 ) ) ;
#164 = ORIENTED_EDGE ( 'NONE', *, *, #272, .F. ) ;
#165 = DATE_AND_TIME ( #33, #102 ) ;
#166 = DIRECTION ( 'NONE',  ( 1.000000000000000000, 0.0000000000000000000, 0.0000000000000000000 ) ) ;
#167 = APPROVAL ( #76, 'UNSPECIFIED' ) ;
#168 = LINE ( 'NONE', #223, #70 ) ;
#169 = PERSON ( 'UNSPECIFIED', 'UNSPECIFIED', 'UNSPECIFIED', ('UNSPECIFIED'), ('UNSPECIFIED'), ('UNSPECIFIED') ) ;
#170 = EDGE_LOOP ( 'NONE', ( #237, #289, #72 ) ) ;
#171 = DIRECTION ( 'NONE',  ( -0.8814374129644637600, 0.0000000000000000000, 0.4723008437706982000 ) ) ;
#172 = CYLINDRICAL_SURFACE ( 'NONE', #122, 25.39999999999999900 ) ;
#173 = CARTESIAN_POINT ( 'NONE',  ( -5.349999999999999600, 0.0000000000000000000, 0.0000000000000000000 ) ) ;
#174 = AXIS2_PLACEMENT_3D ( 'NONE', #145, #84, #245 ) ;
#175 = AXIS2_PLACEMENT_3D ( 'NONE', #163, #206, #268 ) ;
#176 = FACE_OUTER_BOUND ( 'NONE', #49, .T. ) ;
#177 = DESIGN_CONTEXT ( 'detailed design', #89, 'design' ) ;
#178 = APPROVAL ( #125, 'UNSPECIFIED' ) ;
#179 = DATE_AND_TIME ( #73, #53 ) ;
#180 = CARTESIAN_POINT ( 'NONE',  ( -5.349999999999999600, 0.0000000000000000000, 0.0000000000000000000 ) ) ;
#181 = AXIS2_PLACEMENT_3D ( 'NONE', #140, #187, #1 ) ;
#182 = ADVANCED_FACE ( 'NONE', ( #134 ), #94, .T. ) ;
#183 = ORIENTED_EDGE ( 'NONE', *, *, #42, .F. ) ;
#184 = PERSON_AND_ORGANIZATION_ROLE ( 'creator' ) ;
#185 = CIRCLE ( 'NONE', #220, 25.19252073145167300 ) ;
#186 = PERSON_AND_ORGANIZATION ( #169, #52 ) ;
#187 = DIRECTION ( 'NONE',  ( 0.0000000000000000000, -1.000000000000000000, 0.0000000000000000000 ) ) ;
#188 = FACE_OUTER_BOUND ( 'NONE', #152, .T. ) ;
#189 = CARTESIAN_POINT ( 'NONE',  ( -2.600000000000005000, 0.0000000000000000000, 0.0000000000000000000 ) ) ;
#190 = DIRECTION ( 'NONE',  ( -1.000000000000000000, -0.0000000000000000000, -0.0000000000000000000 ) ) ;
#191 = PRODUCT_DEFINITION_FORMATION_WITH_SPECIFIED_SOURCE ( 'ANY', '', #56, .NOT_KNOWN. ) ;
#192 = CONICAL_SURFACE ( 'NONE', #45, 25.39999999999999900, 0.4918992894063682900 ) ;
#193 = DIRECTION ( 'NONE',  ( 0.0000000000000000000, 0.0000000000000000000, -1.000000000000000000 ) ) ;
#194 = ORIENTED_EDGE ( 'NONE', *, *, #9, .F. ) ;
#195 = DIRECTION ( 'NONE',  ( 0.0000000000000000000, 0.0000000000000000000, 1.000000000000000000 ) ) ;
#196 = COORDINATED_UNIVERSAL_TIME_OFFSET ( 5, 0, .BEHIND. ) ;
#197 = AXIS2_PLACEMENT_3D ( 'NONE', #201, #17, #264 ) ;
#198 = PERSON_AND_ORGANIZATION_ROLE ( 'design_owner' ) ;
#199 = SECURITY_CLASSIFICATION_LEVEL ( 'unclassified' ) ;
#200 = PERSON_AND_ORGANIZATION_ROLE ( 'creator' ) ;
#201 = CARTESIAN_POINT ( 'NONE',  ( -5.100000000000010300, 0.0000000000000000000, 0.0000000000000000000 ) ) ;
#202 = EDGE_CURVE ( 'NONE', #4, #40, #111, .T. ) ;
#203 = CARTESIAN_POINT ( 'NONE',  ( -5.349999999999999600, 0.0000000000000000000, -25.15000000000000900 ) ) ;
#204 = VECTOR ( 'NONE', #68, 1000.000000000000000 ) ;
#205 = CC_DESIGN_PERSON_AND_ORGANIZATION_ASSIGNMENT ( #75, #184, ( #191 ) ) ;
#206 = DIRECTION ( 'NONE',  ( 1.000000000000000000, 0.0000000000000000000, 0.0000000000000000000 ) ) ;
#207 = VERTEX_POINT ( 'NONE', #294 ) ;
#208 = DATE_AND_TIME ( #109, #148 ) ;
#209 = CARTESIAN_POINT ( 'NONE',  ( -5.349999999999999600, 3.095294784844935800E-015, 25.15000000000000900 ) ) ;
#210 = LINE ( 'NONE', #288, #204 ) ;
#211 = DATE_TIME_ROLE ( 'classification_date' ) ;
#212 = AXIS2_PLACEMENT_3D ( 'NONE', #82, #263, #255 ) ;
#213 = DIRECTION ( 'NONE',  ( -1.000000000000000000, -0.0000000000000000000, -0.0000000000000000000 ) ) ;
#214 = ORIENTED_EDGE ( 'NONE', *, *, #95, .T. ) ;
#215 = COORDINATED_UNIVERSAL_TIME_OFFSET ( 5, 0, .BEHIND. ) ;
#216 = DIRECTION ( 'NONE',  ( 0.0000000000000000000, 0.0000000000000000000, 1.000000000000000000 ) ) ;
#217 = CARTESIAN_POINT ( 'NONE',  ( -2.600000000000005000, 3.110602869834276900E-015, -25.39999999999999900 ) ) ;
#218 = FACE_OUTER_BOUND ( 'NONE', #41, .T. ) ;
#219 = DIRECTION ( 'NONE',  ( -1.000000000000000000, -0.0000000000000000000, -0.0000000000000000000 ) ) ;
#220 = AXIS2_PLACEMENT_3D ( 'NONE', #106, #275, #236 ) ;
#221 = ORIENTED_EDGE ( 'NONE', *, *, #253, .T. ) ;
#222 = DIRECTION ( 'NONE',  ( 1.000000000000000000, 0.0000000000000000000, 0.0000000000000000000 ) ) ;
#223 = CARTESIAN_POINT ( 'NONE',  ( -5.349999999999999600, 3.079986699855594300E-015, 25.15000000000000900 ) ) ;
#224 = AXIS2_PLACEMENT_3D ( 'NONE', #21, #249, #216 ) ;
#225 = DIRECTION ( 'NONE',  ( 0.7071067811865474600, 0.0000000000000000000, -0.7071067811865474600 ) ) ;
#226 = VECTOR ( 'NONE', #171, 1000.000000000000000 ) ;
#227 = APPROVAL_DATE_TIME ( #165, #178 ) ;
#228 = DIRECTION ( 'NONE',  ( -0.8814374129644637600, 5.784017165583797300E-017, -0.4723008437706982000 ) ) ;
#229 = FACE_OUTER_BOUND ( 'NONE', #97, .T. ) ;
#230 = EDGE_CURVE ( 'NONE', #146, #207, #104, .T. ) ;
#231 = LINE ( 'NONE', #71, #226 ) ;
#232 = EDGE_CURVE ( 'NONE', #40, #117, #185, .T. ) ;
#233 = CARTESIAN_POINT ( 'NONE',  ( -5.349999999999999600, 0.0000000000000000000, 25.39999999999999900 ) ) ;
#234 = EDGE_CURVE ( 'NONE', #117, #32, #155, .T. ) ;
#235 = CARTESIAN_POINT ( 'NONE',  ( -40.64993431642381000, 0.0000000000000000000, 0.0000000000000000000 ) ) ;
#236 = DIRECTION ( 'NONE',  ( 0.0000000000000000000, 0.0000000000000000000, 1.000000000000000000 ) ) ;
#237 = ORIENTED_EDGE ( 'NONE', *, *, #27, .F. ) ;
#238 = MECHANICAL_CONTEXT ( 'NONE', #293, 'mechanical' ) ;
#239 = CLOSED_SHELL ( 'NONE', ( #108, #81, #299, #274, #86, #79, #12, #43, #182 ) ) ;
#240 = COORDINATED_UNIVERSAL_TIME_OFFSET ( 5, 0, .BEHIND. ) ;
#241 = MANIFOLD_SOLID_BREP ( '4294-001-1-solid1', #239 ) ;
#242 = EDGE_CURVE ( 'NONE', #31, #207, #168, .T. ) ;
#243 = EDGE_CURVE ( 'NONE', #7, #31, #77, .T. ) ;
#244 = CIRCLE ( 'NONE', #174, 25.39999999999999900 ) ;
#245 = DIRECTION ( 'NONE',  ( 0.0000000000000000000, 0.0000000000000000000, 1.000000000000000000 ) ) ;
#246 = FACE_OUTER_BOUND ( 'NONE', #170, .T. ) ;
#247 = PERSON_AND_ORGANIZATION ( #169, #52 ) ;
#248 = CC_DESIGN_APPROVAL ( #178, ( #23 ) ) ;
#249 = DIRECTION ( 'NONE',  ( -1.000000000000000000, -0.0000000000000000000, -0.0000000000000000000 ) ) ;
#250 = FACE_OUTER_BOUND ( 'NONE', #96, .T. ) ;
#251 = EDGE_LOOP ( 'NONE', ( #214, #151, #257, #15 ) ) ;
#252 = CARTESIAN_POINT ( 'NONE',  ( -2.212789195435390000, 0.0000000000000000000, 25.19252073145167300 ) ) ;
#253 = EDGE_CURVE ( 'NONE', #32, #146, #65, .T. ) ;
#254 = COORDINATED_UNIVERSAL_TIME_OFFSET ( 5, 0, .BEHIND. ) ;
#255 = DIRECTION ( 'NONE',  ( 0.0000000000000000000, 0.0000000000000000000, -1.000000000000000000 ) ) ;
#256 = VERTEX_POINT ( 'NONE', #112 ) ;
#257 = ORIENTED_EDGE ( 'NONE', *, *, #135, .T. ) ;
#258 = APPROVAL_PERSON_ORGANIZATION ( #247, #167, #154 ) ;
#259 = ORIENTED_EDGE ( 'NONE', *, *, #234, .T. ) ;
#260 = EDGE_CURVE ( 'NONE', #117, #40, #59, .T. ) ;
#261 = DIRECTION ( 'NONE',  ( 0.0000000000000000000, 0.0000000000000000000, 1.000000000000000000 ) ) ;
#262 = ORIENTED_EDGE ( 'NONE', *, *, #230, .T. ) ;
#263 = DIRECTION ( 'NONE',  ( -1.000000000000000000, -0.0000000000000000000, -0.0000000000000000000 ) ) ;
#264 = DIRECTION ( 'NONE',  ( 0.0000000000000000000, 0.0000000000000000000, -1.000000000000000000 ) ) ;
#265 = PERSON_AND_ORGANIZATION ( #169, #52 ) ;
#266 = VECTOR ( 'NONE', #225, 1000.000000000000100 ) ;
#267 = EDGE_LOOP ( 'NONE', ( #35, #36, #118 ) ) ;
#268 = DIRECTION ( 'NONE',  ( 0.0000000000000000000, 0.0000000000000000000, -1.000000000000000000 ) ) ;
#269 = CIRCLE ( 'NONE', #141, 46.00000000000000000 ) ;
#270 = LINE ( 'NONE', #203, #266 ) ;
#271 = PERSON_AND_ORGANIZATION ( #169, #52 ) ;
#272 = EDGE_CURVE ( 'NONE', #207, #256, #58, .T. ) ;
#273 = ORIENTED_EDGE ( 'NONE', *, *, #242, .F. ) ;
#274 = ADVANCED_FACE ( 'NONE', ( #91 ), #13, .T. ) ;
#275 = DIRECTION ( 'NONE',  ( 1.000000000000000000, 0.0000000000000000000, 0.0000000000000000000 ) ) ;
#276 = DIRECTION ( 'NONE',  ( 0.7071067811865474600, 8.659560562354932900E-017, 0.7071067811865474600 ) ) ;
#277 = ORIENTED_EDGE ( 'NONE', *, *, #5, .F. ) ;
#278 = APPROVAL_PERSON_ORGANIZATION ( #290, #74, #142 ) ;
#279 =( NAMED_UNIT ( * ) PLANE_ANGLE_UNIT ( ) SI_UNIT ( $, .RADIAN. ) );
#280 =( LENGTH_UNIT ( ) NAMED_UNIT ( * ) SI_UNIT ( .MILLI., .METRE. ) );
#281 = PRODUCT_DEFINITION ( 'UNKNOWN', '', #191, #177 ) ;
#282 =( NAMED_UNIT ( * ) SI_UNIT ( $, .STERADIAN. ) SOLID_ANGLE_UNIT ( ) );
#283 = DIRECTION ( 'NONE',  ( 0.0000000000000000000, -1.224646799147353200E-016, 1.000000000000000000 ) ) ;
#284 = ORIENTED_EDGE ( 'NONE', *, *, #272, .T. ) ;
#285 = ORIENTED_EDGE ( 'NONE', *, *, #42, .T. ) ;
#286 = APPLICATION_PROTOCOL_DEFINITION ( 'international standard', 'config_control_design', 1994, #293 ) ;
#287 = ORIENTED_EDGE ( 'NONE', *, *, #260, .F. ) ;
#288 = CARTESIAN_POINT ( 'NONE',  ( -5.349999999999999600, 3.110602869834276900E-015, -25.39999999999999900 ) ) ;
#289 = ORIENTED_EDGE ( 'NONE', *, *, #202, .T. ) ;
#290 = PERSON_AND_ORGANIZATION ( #169, #52 ) ;
#291 = CARTESIAN_POINT ( 'NONE',  ( -40.64993431642381000, -9.519913569369104700E-018, 0.07773599356154965700 ) ) ;
#292 = EDGE_LOOP ( 'NONE', ( #273, #20, #126, #164 ) ) ;
#293 = APPLICATION_CONTEXT ( 'configuration controlled 3d designs of mechanical parts and assemblies' ) ;
#294 = CARTESIAN_POINT ( 'NONE',  ( -5.100000000000010300, 0.0000000000000000000, 25.39999999999999900 ) ) ;
#295 = DIRECTION ( 'NONE',  ( 0.0000000000000000000, 0.0000000000000000000, -1.000000000000000000 ) ) ;
#296 = DATE_AND_TIME ( #2, #114 ) ;
#297 = CC_DESIGN_DATE_AND_TIME_ASSIGNMENT ( #179, #211, ( #23 ) ) ;
#298 = ORIENTED_EDGE ( 'NONE', *, *, #242, .T. ) ;
#299 = ADVANCED_FACE ( 'NONE', ( #47 ), #14, .T. ) ;
#300 = CC_DESIGN_APPROVAL ( #167, ( #191 ) ) ;
#301 = CARTESIAN_POINT ( 'NONE',  ( -5.349999999999999600, 0.0000000000000000000, 0.0000000000000000000 ) ) ;
ENDSEC;
END-ISO-10303-21;
