ISO-10303-21;
HEADER;
FILE_DESCRIPTION (( 'STEP AP203' ),
    '1' );
FILE_NAME ('Web Model 68529.STEP',
    '2017-02-01T13:28:39',
    ( '' ),
    ( '' ),
    'SwSTEP 2.0',
    'SolidWorks 2016',
    '' );
FILE_SCHEMA (( 'CONFIG_CONTROL_DESIGN' ));
ENDSEC;

DATA;
#1 = APPROVAL_DATE_TIME ( #163, #156 ) ;
#2 = CIRCLE ( 'NONE', #35, 25.00000000000000000 ) ;
#3 = CYLINDRICAL_SURFACE ( 'NONE', #158, 25.00000000000000000 ) ;
#4 = CC_DESIGN_APPROVAL ( #109, ( #122 ) ) ;
#5 = CALENDAR_DATE ( 2017, 1, 2 ) ;
#6 = ORIENTED_EDGE ( 'NONE', *, *, #14, .T. ) ;
#7 =( NAMED_UNIT ( * ) PLANE_ANGLE_UNIT ( ) SI_UNIT ( $, .RADIAN. ) );
#8 = PERSON_AND_ORGANIZATION ( #159, #27 ) ;
#9 = CARTESIAN_POINT ( 'NONE',  ( 0.0000000000000000000, 0.0000000000000000000, -25.00000000000000000 ) ) ;
#10 = CALENDAR_DATE ( 2017, 1, 2 ) ;
#11 = PLANE ( 'NONE',  #56 ) ;
#12 = PERSON_AND_ORGANIZATION ( #159, #27 ) ;
#13 = CARTESIAN_POINT ( 'NONE',  ( 0.0000000000000000000, 0.0000000000000000000, 0.0000000000000000000 ) ) ;
#14 = EDGE_CURVE ( 'NONE', #147, #73, #141, .T. ) ;
#15 = CC_DESIGN_DATE_AND_TIME_ASSIGNMENT ( #157, #145, ( #122 ) ) ;
#16 = DIRECTION ( 'NONE',  ( 0.0000000000000000000, 0.0000000000000000000, -1.000000000000000000 ) ) ;
#17 = AXIS2_PLACEMENT_3D ( 'NONE', #55, #41, #39 ) ;
#18 = ORIENTED_EDGE ( 'NONE', *, *, #46, .F. ) ;
#19 = COORDINATED_UNIVERSAL_TIME_OFFSET ( 5, 0, .BEHIND. ) ;
#20 = PLANE ( 'NONE',  #114 ) ;
#21 = LINE ( 'NONE', #83, #66 ) ;
#22 = ADVANCED_BREP_SHAPE_REPRESENTATION ( 'Web Model 68529', ( #110, #75 ), #82 ) ;
#23 = EDGE_CURVE ( 'NONE', #113, #169, #174, .T. ) ;
#24 = CARTESIAN_POINT ( 'NONE',  ( 0.0000000000000000000, 1.000000000000000000, 0.0000000000000000000 ) ) ;
#25 = COORDINATED_UNIVERSAL_TIME_OFFSET ( 5, 0, .BEHIND. ) ;
#26 = DIRECTION ( 'NONE',  ( 0.0000000000000000000, 1.000000000000000000, 0.0000000000000000000 ) ) ;
#27 = ORGANIZATION ( 'UNSPECIFIED', 'UNSPECIFIED', '' ) ;
#28 = SECURITY_CLASSIFICATION ( '', '', #168 ) ;
#29 = EDGE_CURVE ( 'NONE', #169, #113, #61, .T. ) ;
#30 = PRODUCT_DEFINITION_FORMATION_WITH_SPECIFIED_SOURCE ( 'ANY', '', #123, .NOT_KNOWN. ) ;
#31 = EDGE_LOOP ( 'NONE', ( #6, #76 ) ) ;
#32 = DIRECTION ( 'NONE',  ( 1.000000000000000000, 0.0000000000000000000, 0.0000000000000000000 ) ) ;
#33 = APPROVAL_STATUS ( 'not_yet_approved' ) ;
#34 = APPROVAL_ROLE ( '' ) ;
#35 = AXIS2_PLACEMENT_3D ( 'NONE', #138, #26, #53 ) ;
#36 = APPROVAL_PERSON_ORGANIZATION ( #126, #156, #134 ) ;
#37 = ORIENTED_EDGE ( 'NONE', *, *, #29, .F. ) ;
#38 = CC_DESIGN_DATE_AND_TIME_ASSIGNMENT ( #51, #142, ( #28 ) ) ;
#39 = DIRECTION ( 'NONE',  ( 0.0000000000000000000, 0.0000000000000000000, -1.000000000000000000 ) ) ;
#40 = CARTESIAN_POINT ( 'NONE',  ( 3.061616997868383000E-015, 1.000000000000000000, 25.00000000000000000 ) ) ;
#41 = DIRECTION ( 'NONE',  ( -0.0000000000000000000, -1.000000000000000000, -0.0000000000000000000 ) ) ;
#42 = CARTESIAN_POINT ( 'NONE',  ( 0.0000000000000000000, 0.0000000000000000000, 0.0000000000000000000 ) ) ;
#43 = COORDINATED_UNIVERSAL_TIME_OFFSET ( 5, 0, .BEHIND. ) ;
#44 = ORIENTED_EDGE ( 'NONE', *, *, #74, .F. ) ;
#45 = PERSON_AND_ORGANIZATION_ROLE ( 'creator' ) ;
#46 = EDGE_CURVE ( 'NONE', #73, #147, #2, .T. ) ;
#47 = CC_DESIGN_APPROVAL ( #54, ( #28 ) ) ;
#48 = DATE_AND_TIME ( #89, #111 ) ;
#49 = PERSON_AND_ORGANIZATION_ROLE ( 'design_owner' ) ;
#50 = CALENDAR_DATE ( 2017, 1, 2 ) ;
#51 = DATE_AND_TIME ( #5, #140 ) ;
#52 = CARTESIAN_POINT ( 'NONE',  ( 0.0000000000000000000, 1.000000000000000000, 0.0000000000000000000 ) ) ;
#53 = DIRECTION ( 'NONE',  ( 0.0000000000000000000, 0.0000000000000000000, 1.000000000000000000 ) ) ;
#54 = APPROVAL ( #33, 'UNSPECIFIED' ) ;
#55 = CARTESIAN_POINT ( 'NONE',  ( 0.0000000000000000000, 1.000000000000000000, 0.0000000000000000000 ) ) ;
#56 = AXIS2_PLACEMENT_3D ( 'NONE', #52, #68, #58 ) ;
#57 = APPROVAL_PERSON_ORGANIZATION ( #99, #109, #34 ) ;
#58 = DIRECTION ( 'NONE',  ( 0.0000000000000000000, -0.0000000000000000000, 1.000000000000000000 ) ) ;
#59 = APPROVAL_STATUS ( 'not_yet_approved' ) ;
#60 = APPROVAL_DATE_TIME ( #48, #109 ) ;
#61 = CIRCLE ( 'NONE', #172, 25.00000000000000000 ) ;
#62 = EDGE_LOOP ( 'NONE', ( #44, #80, #65, #161 ) ) ;
#63 = CC_DESIGN_PERSON_AND_ORGANIZATION_ASSIGNMENT ( #85, #112, ( #30 ) ) ;
#64 = CC_DESIGN_APPROVAL ( #156, ( #30 ) ) ;
#65 = ORIENTED_EDGE ( 'NONE', *, *, #70, .T. ) ;
#66 = VECTOR ( 'NONE', #135, 1000.000000000000000 ) ;
#67 = DIRECTION ( 'NONE',  ( 0.0000000000000000000, 1.000000000000000000, 0.0000000000000000000 ) ) ;
#68 = DIRECTION ( 'NONE',  ( 0.0000000000000000000, 1.000000000000000000, 0.0000000000000000000 ) ) ;
#69 = DIRECTION ( 'NONE',  ( 0.0000000000000000000, 1.000000000000000000, 0.0000000000000000000 ) ) ;
#70 = EDGE_CURVE ( 'NONE', #147, #113, #128, .T. ) ;
#71 = LOCAL_TIME ( 8, 28, 39.00000000000000000, #153 ) ;
#72 = CLOSED_SHELL ( 'NONE', ( #155, #93, #95, #106 ) ) ;
#73 = VERTEX_POINT ( 'NONE', #40 ) ;
#74 = EDGE_CURVE ( 'NONE', #73, #169, #21, .T. ) ;
#75 = AXIS2_PLACEMENT_3D ( 'NONE', #139, #84, #32 ) ;
#76 = ORIENTED_EDGE ( 'NONE', *, *, #46, .T. ) ;
#77 = APPLICATION_CONTEXT ( 'configuration controlled 3d designs of mechanical parts and assemblies' ) ;
#78 = DATE_AND_TIME ( #146, #149 ) ;
#79 = AXIS2_PLACEMENT_3D ( 'NONE', #137, #97, #173 ) ;
#80 = ORIENTED_EDGE ( 'NONE', *, *, #14, .F. ) ;
#81 = PERSON_AND_ORGANIZATION_ROLE ( 'creator' ) ;
#82 =( GEOMETRIC_REPRESENTATION_CONTEXT ( 3 ) GLOBAL_UNCERTAINTY_ASSIGNED_CONTEXT ( ( #152 ) ) GLOBAL_UNIT_ASSIGNED_CONTEXT ( ( #162, #7, #130 ) ) REPRESENTATION_CONTEXT ( 'NONE', 'WORKASPACE' ) );
#83 = CARTESIAN_POINT ( 'NONE',  ( 3.061616997868383000E-015, 1.000000000000000000, 25.00000000000000000 ) ) ;
#84 = DIRECTION ( 'NONE',  ( 0.0000000000000000000, 0.0000000000000000000, 1.000000000000000000 ) ) ;
#85 = PERSON_AND_ORGANIZATION ( #159, #27 ) ;
#86 = CC_DESIGN_SECURITY_CLASSIFICATION ( #28, ( #30 ) ) ;
#87 = ORIENTED_EDGE ( 'NONE', *, *, #29, .T. ) ;
#88 = AXIS2_PLACEMENT_3D ( 'NONE', #13, #69, #171 ) ;
#89 = CALENDAR_DATE ( 2017, 1, 2 ) ;
#90 = MECHANICAL_CONTEXT ( 'NONE', #77, 'mechanical' ) ;
#91 = SHAPE_DEFINITION_REPRESENTATION ( #150, #22 ) ;
#92 = CC_DESIGN_PERSON_AND_ORGANIZATION_ASSIGNMENT ( #8, #49, ( #123 ) ) ;
#93 = ADVANCED_FACE ( 'NONE', ( #102 ), #132, .T. ) ;
#94 = APPROVAL_PERSON_ORGANIZATION ( #101, #54, #129 ) ;
#95 = ADVANCED_FACE ( 'NONE', ( #136 ), #11, .T. ) ;
#96 = FACE_OUTER_BOUND ( 'NONE', #166, .T. ) ;
#97 = DIRECTION ( 'NONE',  ( 0.0000000000000000000, 1.000000000000000000, 0.0000000000000000000 ) ) ;
#98 = APPLICATION_PROTOCOL_DEFINITION ( 'international standard', 'config_control_design', 1994, #151 ) ;
#99 = PERSON_AND_ORGANIZATION ( #159, #27 ) ;
#100 = ORIENTED_EDGE ( 'NONE', *, *, #70, .F. ) ;
#101 = PERSON_AND_ORGANIZATION ( #159, #27 ) ;
#102 = FACE_OUTER_BOUND ( 'NONE', #62, .T. ) ;
#103 = PERSON_AND_ORGANIZATION_ROLE ( 'classification_officer' ) ;
#104 = DIRECTION ( 'NONE',  ( 0.0000000000000000000, -0.0000000000000000000, 1.000000000000000000 ) ) ;
#105 = ORIENTED_EDGE ( 'NONE', *, *, #74, .T. ) ;
#106 = ADVANCED_FACE ( 'NONE', ( #125 ), #20, .F. ) ;
#107 = CARTESIAN_POINT ( 'NONE',  ( 0.0000000000000000000, 0.0000000000000000000, 0.0000000000000000000 ) ) ;
#108 = APPROVAL_STATUS ( 'not_yet_approved' ) ;
#109 = APPROVAL ( #108, 'UNSPECIFIED' ) ;
#110 = MANIFOLD_SOLID_BREP ( 'Extrude1', #72 ) ;
#111 = LOCAL_TIME ( 8, 28, 39.00000000000000000, #144 ) ;
#112 = PERSON_AND_ORGANIZATION_ROLE ( 'design_supplier' ) ;
#113 = VERTEX_POINT ( 'NONE', #9 ) ;
#114 = AXIS2_PLACEMENT_3D ( 'NONE', #42, #115, #104 ) ;
#115 = DIRECTION ( 'NONE',  ( 0.0000000000000000000, 1.000000000000000000, 0.0000000000000000000 ) ) ;
#116 = CC_DESIGN_PERSON_AND_ORGANIZATION_ASSIGNMENT ( #117, #81, ( #122 ) ) ;
#117 = PERSON_AND_ORGANIZATION ( #159, #27 ) ;
#118 = CARTESIAN_POINT ( 'NONE',  ( 0.0000000000000000000, 1.000000000000000000, -25.00000000000000000 ) ) ;
#119 = DIRECTION ( 'NONE',  ( -0.0000000000000000000, -1.000000000000000000, -0.0000000000000000000 ) ) ;
#120 = CARTESIAN_POINT ( 'NONE',  ( 0.0000000000000000000, 1.000000000000000000, -25.00000000000000000 ) ) ;
#121 = CC_DESIGN_PERSON_AND_ORGANIZATION_ASSIGNMENT ( #12, #103, ( #28 ) ) ;
#122 = PRODUCT_DEFINITION ( 'UNKNOWN', '', #30, #164 ) ;
#123 = PRODUCT ( 'Web Model 68529', 'Web Model 68529', '', ( #90 ) ) ;
#124 = DIRECTION ( 'NONE',  ( 0.0000000000000000000, 0.0000000000000000000, 1.000000000000000000 ) ) ;
#125 = FACE_OUTER_BOUND ( 'NONE', #170, .T. ) ;
#126 = PERSON_AND_ORGANIZATION ( #159, #27 ) ;
#127 = APPROVAL_DATE_TIME ( #78, #54 ) ;
#128 = LINE ( 'NONE', #120, #133 ) ;
#129 = APPROVAL_ROLE ( '' ) ;
#130 =( NAMED_UNIT ( * ) SI_UNIT ( $, .STERADIAN. ) SOLID_ANGLE_UNIT ( ) );
#131 = PERSON_AND_ORGANIZATION ( #159, #27 ) ;
#132 = CYLINDRICAL_SURFACE ( 'NONE', #17, 25.00000000000000000 ) ;
#133 = VECTOR ( 'NONE', #160, 1000.000000000000000 ) ;
#134 = APPROVAL_ROLE ( '' ) ;
#135 = DIRECTION ( 'NONE',  ( -0.0000000000000000000, -1.000000000000000000, -0.0000000000000000000 ) ) ;
#136 = FACE_OUTER_BOUND ( 'NONE', #31, .T. ) ;
#137 = CARTESIAN_POINT ( 'NONE',  ( 0.0000000000000000000, 1.000000000000000000, 0.0000000000000000000 ) ) ;
#138 = CARTESIAN_POINT ( 'NONE',  ( 0.0000000000000000000, 1.000000000000000000, 0.0000000000000000000 ) ) ;
#139 = CARTESIAN_POINT ( 'NONE',  ( 0.0000000000000000000, 0.0000000000000000000, 0.0000000000000000000 ) ) ;
#140 = LOCAL_TIME ( 8, 28, 39.00000000000000000, #43 ) ;
#141 = CIRCLE ( 'NONE', #79, 25.00000000000000000 ) ;
#142 = DATE_TIME_ROLE ( 'classification_date' ) ;
#143 = APPLICATION_PROTOCOL_DEFINITION ( 'international standard', 'config_control_design', 1994, #77 ) ;
#144 = COORDINATED_UNIVERSAL_TIME_OFFSET ( 5, 0, .BEHIND. ) ;
#145 = DATE_TIME_ROLE ( 'creation_date' ) ;
#146 = CALENDAR_DATE ( 2017, 1, 2 ) ;
#147 = VERTEX_POINT ( 'NONE', #118 ) ;
#148 = CC_DESIGN_PERSON_AND_ORGANIZATION_ASSIGNMENT ( #131, #45, ( #30 ) ) ;
#149 = LOCAL_TIME ( 8, 28, 39.00000000000000000, #19 ) ;
#150 = PRODUCT_DEFINITION_SHAPE ( 'NONE', 'NONE',  #122 ) ;
#151 = APPLICATION_CONTEXT ( 'configuration controlled 3d designs of mechanical parts and assemblies' ) ;
#152 = UNCERTAINTY_MEASURE_WITH_UNIT (LENGTH_MEASURE( 1.000000000000000100E-005 ), #162, 'distance_accuracy_value', 'NONE');
#153 = COORDINATED_UNIVERSAL_TIME_OFFSET ( 5, 0, .BEHIND. ) ;
#154 = ORIENTED_EDGE ( 'NONE', *, *, #23, .F. ) ;
#155 = ADVANCED_FACE ( 'NONE', ( #96 ), #3, .T. ) ;
#156 = APPROVAL ( #59, 'UNSPECIFIED' ) ;
#157 = DATE_AND_TIME ( #50, #71 ) ;
#158 = AXIS2_PLACEMENT_3D ( 'NONE', #24, #119, #16 ) ;
#159 = PERSON ( 'UNSPECIFIED', 'UNSPECIFIED', 'UNSPECIFIED', ('UNSPECIFIED'), ('UNSPECIFIED'), ('UNSPECIFIED') ) ;
#160 = DIRECTION ( 'NONE',  ( -0.0000000000000000000, -1.000000000000000000, -0.0000000000000000000 ) ) ;
#161 = ORIENTED_EDGE ( 'NONE', *, *, #23, .T. ) ;
#162 =( LENGTH_UNIT ( ) NAMED_UNIT ( * ) SI_UNIT ( .MILLI., .METRE. ) );
#163 = DATE_AND_TIME ( #10, #167 ) ;
#164 = DESIGN_CONTEXT ( 'detailed design', #151, 'design' ) ;
#165 = PRODUCT_RELATED_PRODUCT_CATEGORY ( 'detail', '', ( #123 ) ) ;
#166 = EDGE_LOOP ( 'NONE', ( #18, #105, #87, #100 ) ) ;
#167 = LOCAL_TIME ( 8, 28, 39.00000000000000000, #25 ) ;
#168 = SECURITY_CLASSIFICATION_LEVEL ( 'unclassified' ) ;
#169 = VERTEX_POINT ( 'NONE', #175 ) ;
#170 = EDGE_LOOP ( 'NONE', ( #154, #37 ) ) ;
#171 = DIRECTION ( 'NONE',  ( 0.0000000000000000000, 0.0000000000000000000, 1.000000000000000000 ) ) ;
#172 = AXIS2_PLACEMENT_3D ( 'NONE', #107, #67, #124 ) ;
#173 = DIRECTION ( 'NONE',  ( 0.0000000000000000000, 0.0000000000000000000, 1.000000000000000000 ) ) ;
#174 = CIRCLE ( 'NONE', #88, 25.00000000000000000 ) ;
#175 = CARTESIAN_POINT ( 'NONE',  ( 3.061616997868383000E-015, 0.0000000000000000000, 25.00000000000000000 ) ) ;
ENDSEC;
END-ISO-10303-21;
