ISO-10303-21;
HEADER;
FILE_DESCRIPTION (( 'STEP AP203' ),
    '1' );
FILE_NAME ('Web Model 11874_22602.step',
    '2022-06-07T18:28:37',
    ( 'WC' ),
    ( 'Windows Central' ),
    'SwSTEP 2.0',
    'SolidWorks 2021',
    '' );
FILE_SCHEMA (( 'CONFIG_CONTROL_DESIGN' ));
ENDSEC;

DATA;
#1 = MANIFOLD_SOLID_BREP ( 'Boss-Extrude1', #146 ) ;
#2 = CC_DESIGN_APPROVAL ( #175, ( #16 ) ) ;
#3 = ORIENTED_EDGE ( 'NONE', *, *, #57, .T. ) ;
#4 = ORIENTED_EDGE ( 'NONE', *, *, #157, .T. ) ;
#5 = CARTESIAN_POINT ( 'NONE',  ( 12.50000000000000000, 1.530808498934191521E-15, 2.500000000000000000 ) ) ;
#6 = APPROVAL_DATE_TIME ( #115, #175 ) ;
#7 = APPROVAL_PERSON_ORGANIZATION ( #127, #23, #143 ) ;
#8 = DIRECTION ( 'NONE',  ( 0.000000000000000000, 0.000000000000000000, 1.000000000000000000 ) ) ;
#9 = PERSON_AND_ORGANIZATION ( #110, #109 ) ;
#10 = DIRECTION ( 'NONE',  ( -1.000000000000000000, 0.000000000000000000, 0.000000000000000000 ) ) ;
#11 = APPROVAL_STATUS ( 'not_yet_approved' ) ;
#12 = DIRECTION ( 'NONE',  ( 1.000000000000000000, 0.000000000000000000, -0.000000000000000000 ) ) ;
#13 = DIRECTION ( 'NONE',  ( 0.000000000000000000, 0.000000000000000000, 1.000000000000000000 ) ) ;
#14 = LOCAL_TIME ( 14, 28, 37.00000000000000000, #100 ) ;
#15 = DIRECTION ( 'NONE',  ( 0.000000000000000000, 0.000000000000000000, 1.000000000000000000 ) ) ;
#16 = PRODUCT_DEFINITION_FORMATION_WITH_SPECIFIED_SOURCE ( 'ANY', '', #34, .NOT_KNOWN. ) ;
#17 = EDGE_LOOP ( 'NONE', ( #37, #121 ) ) ;
#18 = ADVANCED_FACE ( 'NONE', ( #73 ), #144, .T. ) ;
#19 = VERTEX_POINT ( 'NONE', #69 ) ;
#20 = FACE_OUTER_BOUND ( 'NONE', #150, .T. ) ;
#21 = ORIENTED_EDGE ( 'NONE', *, *, #57, .F. ) ;
#22 = DATE_AND_TIME ( #106, #14 ) ;
#23 = APPROVAL ( #11, 'UNSPECIFIED' ) ;
#24 = CARTESIAN_POINT ( 'NONE',  ( 0.000000000000000000, 0.000000000000000000, 2.500000000000000000 ) ) ;
#25 = MECHANICAL_CONTEXT ( 'NONE', #138, 'mechanical' ) ;
#26 = AXIS2_PLACEMENT_3D ( 'NONE', #151, #8, #38 ) ;
#27 = DIRECTION ( 'NONE',  ( 0.000000000000000000, 0.000000000000000000, 1.000000000000000000 ) ) ;
#28 = PLANE ( 'NONE',  #68 ) ;
#29 = PERSON_AND_ORGANIZATION ( #110, #109 ) ;
#30 = CARTESIAN_POINT ( 'NONE',  ( 0.000000000000000000, 0.000000000000000000, 2.500000000000000000 ) ) ;
#31 = COORDINATED_UNIVERSAL_TIME_OFFSET ( 5, 0, .BEHIND. ) ;
#32 = SECURITY_CLASSIFICATION ( '', '', #156 ) ;
#33 = PRODUCT_DEFINITION ( 'UNKNOWN', '', #16, #166 ) ;
#34 = PRODUCT ( 'Web Model 11874_22602', 'Web Model 11874_22602', '', ( #25 ) ) ;
#35 = CC_DESIGN_PERSON_AND_ORGANIZATION_ASSIGNMENT ( #101, #62, ( #16 ) ) ;
#36 = CC_DESIGN_SECURITY_CLASSIFICATION ( #32, ( #16 ) ) ;
#37 = ORIENTED_EDGE ( 'NONE', *, *, #164, .F. ) ;
#38 = DIRECTION ( 'NONE',  ( 1.000000000000000000, 0.000000000000000000, 0.000000000000000000 ) ) ;
#39 = VERTEX_POINT ( 'NONE', #97 ) ;
#40 = UNCERTAINTY_MEASURE_WITH_UNIT (LENGTH_MEASURE( 1.000000000000000082E-05 ), #162, 'distance_accuracy_value', 'NONE');
#41 = AXIS2_PLACEMENT_3D ( 'NONE', #136, #105, #94 ) ;
#42 = DIRECTION ( 'NONE',  ( 1.000000000000000000, 0.000000000000000000, -0.000000000000000000 ) ) ;
#43 = CARTESIAN_POINT ( 'NONE',  ( 12.50000000000000000, 1.530808498934191521E-15, 2.500000000000000000 ) ) ;
#44 = PERSON_AND_ORGANIZATION_ROLE ( 'design_supplier' ) ;
#45 = CALENDAR_DATE ( 2022, 7, 6 ) ;
#46 = COORDINATED_UNIVERSAL_TIME_OFFSET ( 5, 0, .BEHIND. ) ;
#47 = DIRECTION ( 'NONE',  ( 0.000000000000000000, 0.000000000000000000, 1.000000000000000000 ) ) ;
#48 = VERTEX_POINT ( 'NONE', #70 ) ;
#49 = ORIENTED_EDGE ( 'NONE', *, *, #173, .F. ) ;
#50 = APPROVAL_DATE_TIME ( #112, #85 ) ;
#51 = APPROVAL_STATUS ( 'not_yet_approved' ) ;
#52 = CARTESIAN_POINT ( 'NONE',  ( -12.50000000000000000, 0.000000000000000000, 2.500000000000000000 ) ) ;
#53 = LINE ( 'NONE', #52, #165 ) ;
#54 = AXIS2_PLACEMENT_3D ( 'NONE', #24, #98, #88 ) ;
#55 = CC_DESIGN_DATE_AND_TIME_ASSIGNMENT ( #158, #123, ( #32 ) ) ;
#56 = DATE_AND_TIME ( #117, #74 ) ;
#57 = EDGE_CURVE ( 'NONE', #48, #133, #120, .T. ) ;
#58 = LOCAL_TIME ( 14, 28, 37.00000000000000000, #139 ) ;
#59 = CC_DESIGN_PERSON_AND_ORGANIZATION_ASSIGNMENT ( #82, #44, ( #16 ) ) ;
#60 = EDGE_LOOP ( 'NONE', ( #149, #21, #119, #87 ) ) ;
#61 = CC_DESIGN_DATE_AND_TIME_ASSIGNMENT ( #22, #104, ( #33 ) ) ;
#62 = PERSON_AND_ORGANIZATION_ROLE ( 'creator' ) ;
#63 = EDGE_CURVE ( 'NONE', #39, #19, #108, .T. ) ;
#64 = APPLICATION_PROTOCOL_DEFINITION ( 'international standard', 'config_control_design', 1994, #138 ) ;
#65 = DIRECTION ( 'NONE',  ( -0.000000000000000000, -0.000000000000000000, -1.000000000000000000 ) ) ;
#66 = APPLICATION_PROTOCOL_DEFINITION ( 'international standard', 'config_control_design', 1994, #103 ) ;
#67 = DIRECTION ( 'NONE',  ( -0.000000000000000000, -0.000000000000000000, -1.000000000000000000 ) ) ;
#68 = AXIS2_PLACEMENT_3D ( 'NONE', #161, #47, #42 ) ;
#69 = CARTESIAN_POINT ( 'NONE',  ( -12.50000000000000000, 0.000000000000000000, -2.500000000000000000 ) ) ;
#70 = CARTESIAN_POINT ( 'NONE',  ( -12.50000000000000000, 0.000000000000000000, 2.500000000000000000 ) ) ;
#71 = ADVANCED_FACE ( 'NONE', ( #155 ), #86, .T. ) ;
#72 = SHAPE_DEFINITION_REPRESENTATION ( #131, #107 ) ;
#73 = FACE_OUTER_BOUND ( 'NONE', #134, .T. ) ;
#74 = LOCAL_TIME ( 14, 28, 37.00000000000000000, #31 ) ;
#75 = AXIS2_PLACEMENT_3D ( 'NONE', #30, #13, #12 ) ;
#76 = EDGE_CURVE ( 'NONE', #133, #39, #114, .T. ) ;
#77 = DIRECTION ( 'NONE',  ( -1.000000000000000000, 0.000000000000000000, 0.000000000000000000 ) ) ;
#78 = ORIENTED_EDGE ( 'NONE', *, *, #157, .F. ) ;
#79 = CALENDAR_DATE ( 2022, 7, 6 ) ;
#80 = AXIS2_PLACEMENT_3D ( 'NONE', #99, #27, #128 ) ;
#81 = APPROVAL_ROLE ( '' ) ;
#82 = PERSON_AND_ORGANIZATION ( #110, #109 ) ;
#83 = CARTESIAN_POINT ( 'NONE',  ( 0.000000000000000000, 0.000000000000000000, 2.500000000000000000 ) ) ;
#84 = APPROVAL_PERSON_ORGANIZATION ( #122, #175, #81 ) ;
#85 = APPROVAL ( #137, 'UNSPECIFIED' ) ;
#86 = CYLINDRICAL_SURFACE ( 'NONE', #132, 12.50000000000000000 ) ;
#87 = ORIENTED_EDGE ( 'NONE', *, *, #164, .T. ) ;
#88 = DIRECTION ( 'NONE',  ( 1.000000000000000000, 0.000000000000000000, 0.000000000000000000 ) ) ;
#89 = PERSON_AND_ORGANIZATION_ROLE ( 'design_owner' ) ;
#90 = CARTESIAN_POINT ( 'NONE',  ( 0.000000000000000000, 0.000000000000000000, 2.500000000000000000 ) ) ;
#91 = COORDINATED_UNIVERSAL_TIME_OFFSET ( 5, 0, .BEHIND. ) ;
#92 = APPROVAL_ROLE ( '' ) ;
#93 = PERSON_AND_ORGANIZATION ( #110, #109 ) ;
#94 = DIRECTION ( 'NONE',  ( 1.000000000000000000, 0.000000000000000000, 0.000000000000000000 ) ) ;
#95 = CC_DESIGN_PERSON_AND_ORGANIZATION_ASSIGNMENT ( #9, #89, ( #34 ) ) ;
#96 = VECTOR ( 'NONE', #65, 1000.000000000000000 ) ;
#97 = CARTESIAN_POINT ( 'NONE',  ( 12.50000000000000000, 1.530808498934191521E-15, -2.500000000000000000 ) ) ;
#98 = DIRECTION ( 'NONE',  ( 0.000000000000000000, 0.000000000000000000, 1.000000000000000000 ) ) ;
#99 = CARTESIAN_POINT ( 'NONE',  ( 0.000000000000000000, 0.000000000000000000, 0.000000000000000000 ) ) ;
#100 = COORDINATED_UNIVERSAL_TIME_OFFSET ( 5, 0, .BEHIND. ) ;
#101 = PERSON_AND_ORGANIZATION ( #110, #109 ) ;
#102 = CARTESIAN_POINT ( 'NONE',  ( 0.000000000000000000, 0.000000000000000000, 2.500000000000000000 ) ) ;
#103 = APPLICATION_CONTEXT ( 'configuration controlled 3d designs of mechanical parts and assemblies' ) ;
#104 = DATE_TIME_ROLE ( 'creation_date' ) ;
#105 = DIRECTION ( 'NONE',  ( 0.000000000000000000, 0.000000000000000000, 1.000000000000000000 ) ) ;
#106 = CALENDAR_DATE ( 2022, 7, 6 ) ;
#107 = ADVANCED_BREP_SHAPE_REPRESENTATION ( 'Web Model 11874_22602', ( #1, #80 ), #163 ) ;
#108 = CIRCLE ( 'NONE', #26, 12.50000000000000000 ) ;
#109 = ORGANIZATION ( 'UNSPECIFIED', 'UNSPECIFIED', '' ) ;
#110 = PERSON ( 'UNSPECIFIED', 'UNSPECIFIED', 'UNSPECIFIED', ('UNSPECIFIED'), ('UNSPECIFIED'), ('UNSPECIFIED') ) ;
#111 = CC_DESIGN_APPROVAL ( #23, ( #32 ) ) ;
#112 = DATE_AND_TIME ( #45, #58 ) ;
#113 = DIRECTION ( 'NONE',  ( -0.000000000000000000, -0.000000000000000000, -1.000000000000000000 ) ) ;
#114 = LINE ( 'NONE', #43, #96 ) ;
#115 = DATE_AND_TIME ( #79, #154 ) ;
#116 = ORIENTED_EDGE ( 'NONE', *, *, #76, .T. ) ;
#117 = CALENDAR_DATE ( 2022, 7, 6 ) ;
#118 = APPROVAL_PERSON_ORGANIZATION ( #152, #85, #92 ) ;
#119 = ORIENTED_EDGE ( 'NONE', *, *, #173, .T. ) ;
#120 = CIRCLE ( 'NONE', #140, 12.50000000000000000 ) ;
#121 = ORIENTED_EDGE ( 'NONE', *, *, #63, .F. ) ;
#122 = PERSON_AND_ORGANIZATION ( #110, #109 ) ;
#123 = DATE_TIME_ROLE ( 'classification_date' ) ;
#124 = DIRECTION ( 'NONE',  ( 1.000000000000000000, 0.000000000000000000, 0.000000000000000000 ) ) ;
#125 = CALENDAR_DATE ( 2022, 7, 6 ) ;
#126 = DIRECTION ( 'NONE',  ( -0.000000000000000000, -0.000000000000000000, -1.000000000000000000 ) ) ;
#127 = PERSON_AND_ORGANIZATION ( #110, #109 ) ;
#128 = DIRECTION ( 'NONE',  ( 1.000000000000000000, 0.000000000000000000, 0.000000000000000000 ) ) ;
#129 = ADVANCED_FACE ( 'NONE', ( #20 ), #172, .T. ) ;
#130 = CC_DESIGN_APPROVAL ( #85, ( #33 ) ) ;
#131 = PRODUCT_DEFINITION_SHAPE ( 'NONE', 'NONE',  #33 ) ;
#132 = AXIS2_PLACEMENT_3D ( 'NONE', #102, #126, #10 ) ;
#133 = VERTEX_POINT ( 'NONE', #5 ) ;
#134 = EDGE_LOOP ( 'NONE', ( #3, #4 ) ) ;
#135 = AXIS2_PLACEMENT_3D ( 'NONE', #90, #67, #77 ) ;
#136 = CARTESIAN_POINT ( 'NONE',  ( 0.000000000000000000, 0.000000000000000000, -2.500000000000000000 ) ) ;
#137 = APPROVAL_STATUS ( 'not_yet_approved' ) ;
#138 = APPLICATION_CONTEXT ( 'configuration controlled 3d designs of mechanical parts and assemblies' ) ;
#139 = COORDINATED_UNIVERSAL_TIME_OFFSET ( 5, 0, .BEHIND. ) ;
#140 = AXIS2_PLACEMENT_3D ( 'NONE', #83, #15, #124 ) ;
#141 = PERSON_AND_ORGANIZATION_ROLE ( 'classification_officer' ) ;
#142 = FACE_OUTER_BOUND ( 'NONE', #17, .T. ) ;
#143 = APPROVAL_ROLE ( '' ) ;
#144 = PLANE ( 'NONE',  #75 ) ;
#145 = CC_DESIGN_PERSON_AND_ORGANIZATION_ASSIGNMENT ( #93, #141, ( #32 ) ) ;
#146 = CLOSED_SHELL ( 'NONE', ( #129, #71, #18, #168 ) ) ;
#147 = APPROVAL_DATE_TIME ( #56, #23 ) ;
#148 = CIRCLE ( 'NONE', #41, 12.50000000000000000 ) ;
#149 = ORIENTED_EDGE ( 'NONE', *, *, #76, .F. ) ;
#150 = EDGE_LOOP ( 'NONE', ( #78, #116, #167, #49 ) ) ;
#151 = CARTESIAN_POINT ( 'NONE',  ( 0.000000000000000000, 0.000000000000000000, -2.500000000000000000 ) ) ;
#152 = PERSON_AND_ORGANIZATION ( #110, #109 ) ;
#153 = CC_DESIGN_PERSON_AND_ORGANIZATION_ASSIGNMENT ( #29, #171, ( #33 ) ) ;
#154 = LOCAL_TIME ( 14, 28, 37.00000000000000000, #46 ) ;
#155 = FACE_OUTER_BOUND ( 'NONE', #60, .T. ) ;
#156 = SECURITY_CLASSIFICATION_LEVEL ( 'unclassified' ) ;
#157 = EDGE_CURVE ( 'NONE', #133, #48, #169, .T. ) ;
#158 = DATE_AND_TIME ( #125, #174 ) ;
#159 = PRODUCT_RELATED_PRODUCT_CATEGORY ( 'detail', '', ( #34 ) ) ;
#160 =( NAMED_UNIT ( * ) PLANE_ANGLE_UNIT ( ) SI_UNIT ( $, .RADIAN. ) );
#161 = CARTESIAN_POINT ( 'NONE',  ( 0.000000000000000000, 0.000000000000000000, -2.500000000000000000 ) ) ;
#162 =( LENGTH_UNIT ( ) NAMED_UNIT ( * ) SI_UNIT ( .MILLI., .METRE. ) );
#163 =( GEOMETRIC_REPRESENTATION_CONTEXT ( 3 ) GLOBAL_UNCERTAINTY_ASSIGNED_CONTEXT ( ( #40 ) ) GLOBAL_UNIT_ASSIGNED_CONTEXT ( ( #162, #160, #170 ) ) REPRESENTATION_CONTEXT ( 'NONE', 'WORKASPACE' ) );
#164 = EDGE_CURVE ( 'NONE', #19, #39, #148, .T. ) ;
#165 = VECTOR ( 'NONE', #113, 1000.000000000000000 ) ;
#166 = DESIGN_CONTEXT ( 'detailed design', #103, 'design' ) ;
#167 = ORIENTED_EDGE ( 'NONE', *, *, #63, .T. ) ;
#168 = ADVANCED_FACE ( 'NONE', ( #142 ), #28, .F. ) ;
#169 = CIRCLE ( 'NONE', #54, 12.50000000000000000 ) ;
#170 =( NAMED_UNIT ( * ) SI_UNIT ( $, .STERADIAN. ) SOLID_ANGLE_UNIT ( ) );
#171 = PERSON_AND_ORGANIZATION_ROLE ( 'creator' ) ;
#172 = CYLINDRICAL_SURFACE ( 'NONE', #135, 12.50000000000000000 ) ;
#173 = EDGE_CURVE ( 'NONE', #48, #19, #53, .T. ) ;
#174 = LOCAL_TIME ( 14, 28, 37.00000000000000000, #91 ) ;
#175 = APPROVAL ( #51, 'UNSPECIFIED' ) ;
ENDSEC;
END-ISO-10303-21;
