ISO-10303-21;
HEADER;
FILE_DESCRIPTION (( 'STEP AP203' ),
    '1' );
FILE_NAME ('Web Model 47047_47125.step',
    '2017-06-06T16:59:30',
    ( '' ),
    ( '' ),
    'SwSTEP 2.0',
    'SolidWorks 2016',
    '' );
FILE_SCHEMA (( 'CONFIG_CONTROL_DESIGN' ));
ENDSEC;

DATA;
#1 = PLANE ( 'NONE',  #198 ) ;
#2 = ORIENTED_EDGE ( 'NONE', *, *, #246, .F. ) ;
#3 = COORDINATED_UNIVERSAL_TIME_OFFSET ( 5, 0, .BEHIND. ) ;
#4 = VECTOR ( 'NONE', #17, 1000.000000000000000 ) ;
#5 = LINE ( 'NONE', #266, #4 ) ;
#6 = LOCAL_TIME ( 12, 59, 30.00000000000000000, #291 ) ;
#7 = VERTEX_POINT ( 'NONE', #75 ) ;
#8 = EDGE_LOOP ( 'NONE', ( #92, #276, #107 ) ) ;
#9 = ORIENTED_EDGE ( 'NONE', *, *, #153, .T. ) ;
#10 = VECTOR ( 'NONE', #21, 1000.000000000000000 ) ;
#11 = COORDINATED_UNIVERSAL_TIME_OFFSET ( 5, 0, .BEHIND. ) ;
#12 = VERTEX_POINT ( 'NONE', #288 ) ;
#13 = CARTESIAN_POINT ( 'NONE',  ( -6.133173666733495600E-016, -6.133173666733495600E-016, 7.500000000000000000 ) ) ;
#14 = PRODUCT_DEFINITION_FORMATION_WITH_SPECIFIED_SOURCE ( 'ANY', '', #296, .NOT_KNOWN. ) ;
#15 = CARTESIAN_POINT ( 'NONE',  ( 0.0000000000000000000, 7.499999999999999100, 7.500000000000000000 ) ) ;
#16 = DIRECTION ( 'NONE',  ( 0.0000000000000000000, 1.000000000000000000, 0.0000000000000000000 ) ) ;
#17 = DIRECTION ( 'NONE',  ( 0.0000000000000000000, 1.000000000000000000, -0.0000000000000000000 ) ) ;
#18 = ORIENTED_EDGE ( 'NONE', *, *, #170, .F. ) ;
#19 = AXIS2_PLACEMENT_3D ( 'NONE', #305, #177, #67 ) ;
#20 = DIRECTION ( 'NONE',  ( 1.000000000000000000, 0.0000000000000000000, 0.0000000000000000000 ) ) ;
#21 = DIRECTION ( 'NONE',  ( -0.0000000000000000000, -0.0000000000000000000, -1.000000000000000000 ) ) ;
#22 =( NAMED_UNIT ( * ) SI_UNIT ( $, .STERADIAN. ) SOLID_ANGLE_UNIT ( ) );
#23 = CARTESIAN_POINT ( 'NONE',  ( 0.0000000000000000000, 0.0000000000000000000, 0.0000000000000000000 ) ) ;
#24 = LOCAL_TIME ( 12, 59, 30.00000000000000000, #3 ) ;
#25 = ORIENTED_EDGE ( 'NONE', *, *, #76, .T. ) ;
#26 = ORIENTED_EDGE ( 'NONE', *, *, #201, .F. ) ;
#27 = EDGE_CURVE ( 'NONE', #257, #148, #5, .T. ) ;
#28 = EDGE_CURVE ( 'NONE', #300, #7, #103, .T. ) ;
#29 = CARTESIAN_POINT ( 'NONE',  ( 7.499999999999998200, -7.500000000000000000, 7.500000000000000000 ) ) ;
#30 = SECURITY_CLASSIFICATION_LEVEL ( 'unclassified' ) ;
#31 = VECTOR ( 'NONE', #164, 1000.000000000000000 ) ;
#32 = VECTOR ( 'NONE', #168, 1000.000000000000100 ) ;
#33 = VECTOR ( 'NONE', #203, 1000.000000000000000 ) ;
#34 = CARTESIAN_POINT ( 'NONE',  ( 7.499999999999998200, -7.500000000000000000, -7.500000000000000000 ) ) ;
#35 = PERSON_AND_ORGANIZATION ( #237, #240 ) ;
#36 = PERSON_AND_ORGANIZATION ( #237, #240 ) ;
#37 = ADVANCED_FACE ( 'NONE', ( #126 ), #106, .F. ) ;
#38 = APPROVAL ( #105, 'UNSPECIFIED' ) ;
#39 = DIRECTION ( 'NONE',  ( 0.0000000000000000000, -0.0000000000000000000, 1.000000000000000000 ) ) ;
#40 = CALENDAR_DATE ( 2017, 6, 6 ) ;
#41 = FACE_OUTER_BOUND ( 'NONE', #130, .T. ) ;
#42 = VERTEX_POINT ( 'NONE', #223 ) ;
#43 = VECTOR ( 'NONE', #297, 1000.000000000000000 ) ;
#44 = LINE ( 'NONE', #258, #43 ) ;
#45 = LINE ( 'NONE', #259, #156 ) ;
#46 = APPROVAL_ROLE ( '' ) ;
#47 = ORIENTED_EDGE ( 'NONE', *, *, #134, .F. ) ;
#48 = APPROVAL_PERSON_ORGANIZATION ( #174, #38, #46 ) ;
#49 = VECTOR ( 'NONE', #51, 1000.000000000000100 ) ;
#50 = PLANE ( 'NONE',  #235 ) ;
#51 = DIRECTION ( 'NONE',  ( 0.7071067811865474600, -0.7071067811865474600, 0.0000000000000000000 ) ) ;
#52 = DIRECTION ( 'NONE',  ( -0.0000000000000000000, -0.0000000000000000000, -1.000000000000000000 ) ) ;
#53 = CARTESIAN_POINT ( 'NONE',  ( -7.500000000000000000, 7.499999999999998200, -7.500000000000000000 ) ) ;
#54 = CARTESIAN_POINT ( 'NONE',  ( -0.0000000000000000000, 7.499999999999999100, -7.500000000000000000 ) ) ;
#55 = CC_DESIGN_APPROVAL ( #38, ( #14 ) ) ;
#56 = DATE_AND_TIME ( #154, #6 ) ;
#57 = LOCAL_TIME ( 12, 59, 30.00000000000000000, #319 ) ;
#58 = CARTESIAN_POINT ( 'NONE',  ( 0.0000000000000000000, 0.0000000000000000000, 7.500000000000000000 ) ) ;
#59 = LINE ( 'NONE', #199, #262 ) ;
#60 = DIRECTION ( 'NONE',  ( -0.0000000000000000000, 0.0000000000000000000, 1.000000000000000000 ) ) ;
#61 = AXIS2_PLACEMENT_3D ( 'NONE', #214, #124, #321 ) ;
#62 = UNCERTAINTY_MEASURE_WITH_UNIT (LENGTH_MEASURE( 1.000000000000000100E-005 ), #279, 'distance_accuracy_value', 'NONE');
#63 = DATE_TIME_ROLE ( 'creation_date' ) ;
#64 = ORIENTED_EDGE ( 'NONE', *, *, #138, .F. ) ;
#65 = LINE ( 'NONE', #116, #197 ) ;
#66 = ADVANCED_FACE ( 'NONE', ( #133 ), #217, .F. ) ;
#67 = DIRECTION ( 'NONE',  ( 1.000000000000000000, 0.0000000000000000000, 0.0000000000000000000 ) ) ;
#68 = PERSON_AND_ORGANIZATION_ROLE ( 'design_owner' ) ;
#69 = APPLICATION_PROTOCOL_DEFINITION ( 'international standard', 'config_control_design', 1994, #247 ) ;
#70 = FACE_OUTER_BOUND ( 'NONE', #8, .T. ) ;
#71 = VERTEX_POINT ( 'NONE', #202 ) ;
#72 = CC_DESIGN_PERSON_AND_ORGANIZATION_ASSIGNMENT ( #210, #97, ( #14 ) ) ;
#73 = ORIENTED_EDGE ( 'NONE', *, *, #138, .T. ) ;
#74 = PLANE ( 'NONE',  #165 ) ;
#75 = CARTESIAN_POINT ( 'NONE',  ( 7.499999999999998200, 7.499999999999999100, -7.500000000000000000 ) ) ;
#76 = EDGE_CURVE ( 'NONE', #244, #42, #283, .T. ) ;
#77 = PLANE ( 'NONE',  #19 ) ;
#78 = APPROVAL_DATE_TIME ( #56, #159 ) ;
#79 = PERSON_AND_ORGANIZATION ( #237, #240 ) ;
#80 = DIRECTION ( 'NONE',  ( 0.0000000000000000000, 0.0000000000000000000, 1.000000000000000000 ) ) ;
#81 = CARTESIAN_POINT ( 'NONE',  ( -6.133173666733495600E-016, -6.133173666733495600E-016, -7.500000000000000000 ) ) ;
#82 = APPROVAL_DATE_TIME ( #302, #38 ) ;
#83 = DIRECTION ( 'NONE',  ( -1.000000000000000000, 0.0000000000000000000, 0.0000000000000000000 ) ) ;
#84 = DATE_TIME_ROLE ( 'classification_date' ) ;
#85 = EDGE_CURVE ( 'NONE', #263, #42, #44, .T. ) ;
#86 = VECTOR ( 'NONE', #52, 1000.000000000000000 ) ;
#87 = EDGE_CURVE ( 'NONE', #244, #115, #45, .T. ) ;
#88 = ADVANCED_FACE ( 'NONE', ( #271 ), #139, .F. ) ;
#89 = EDGE_CURVE ( 'NONE', #12, #148, #307, .T. ) ;
#90 = ORIENTED_EDGE ( 'NONE', *, *, #201, .T. ) ;
#91 = DATE_AND_TIME ( #277, #206 ) ;
#92 = ORIENTED_EDGE ( 'NONE', *, *, #170, .T. ) ;
#93 = EDGE_LOOP ( 'NONE', ( #117, #136, #281, #73 ) ) ;
#94 = CC_DESIGN_PERSON_AND_ORGANIZATION_ASSIGNMENT ( #102, #110, ( #14 ) ) ;
#95 = ORIENTED_EDGE ( 'NONE', *, *, #182, .T. ) ;
#96 = MANIFOLD_SOLID_BREP ( 'Boss-Extrude3', #267 ) ;
#97 = PERSON_AND_ORGANIZATION_ROLE ( 'creator' ) ;
#98 = AXIS2_PLACEMENT_3D ( 'NONE', #213, #60, #229 ) ;
#99 = DIRECTION ( 'NONE',  ( 0.0000000000000000000, 0.0000000000000000000, 1.000000000000000000 ) ) ;
#100 = EDGE_CURVE ( 'NONE', #167, #115, #179, .T. ) ;
#101 = ORIENTED_EDGE ( 'NONE', *, *, #166, .T. ) ;
#102 = PERSON_AND_ORGANIZATION ( #237, #240 ) ;
#103 = LINE ( 'NONE', #54, #301 ) ;
#104 = CARTESIAN_POINT ( 'NONE',  ( -7.500000000000000000, -7.499999999999999100, -7.500000000000000000 ) ) ;
#105 = APPROVAL_STATUS ( 'not_yet_approved' ) ;
#106 = PLANE ( 'NONE',  #253 ) ;
#107 = ORIENTED_EDGE ( 'NONE', *, *, #89, .F. ) ;
#108 = APPROVAL_ROLE ( '' ) ;
#109 = ORIENTED_EDGE ( 'NONE', *, *, #85, .T. ) ;
#110 = PERSON_AND_ORGANIZATION_ROLE ( 'design_supplier' ) ;
#111 = PLANE ( 'NONE',  #98 ) ;
#112 = CARTESIAN_POINT ( 'NONE',  ( -6.133173666733495600E-016, -6.133173666733495600E-016, 7.500000000000000000 ) ) ;
#113 = SECURITY_CLASSIFICATION ( '', '', #30 ) ;
#114 = DIRECTION ( 'NONE',  ( 0.7071067811865474600, -0.7071067811865474600, 0.0000000000000000000 ) ) ;
#115 = VERTEX_POINT ( 'NONE', #137 ) ;
#116 = CARTESIAN_POINT ( 'NONE',  ( 0.0000000000000000000, -7.499999999999999100, 7.500000000000000000 ) ) ;
#117 = ORIENTED_EDGE ( 'NONE', *, *, #251, .T. ) ;
#118 = EDGE_LOOP ( 'NONE', ( #2, #90, #194 ) ) ;
#119 = PLANE ( 'NONE',  #61 ) ;
#120 = EDGE_LOOP ( 'NONE', ( #193, #221, #155, #293 ) ) ;
#121 = APPROVAL_PERSON_ORGANIZATION ( #298, #280, #225 ) ;
#122 = EDGE_CURVE ( 'NONE', #148, #7, #272, .T. ) ;
#123 = ORIENTED_EDGE ( 'NONE', *, *, #85, .F. ) ;
#124 = DIRECTION ( 'NONE',  ( -0.0000000000000000000, 0.0000000000000000000, 1.000000000000000000 ) ) ;
#125 = APPROVAL_DATE_TIME ( #231, #280 ) ;
#126 = FACE_OUTER_BOUND ( 'NONE', #184, .T. ) ;
#127 = EDGE_CURVE ( 'NONE', #115, #42, #163, .T. ) ;
#128 = DIRECTION ( 'NONE',  ( 1.000000000000000000, 0.0000000000000000000, 0.0000000000000000000 ) ) ;
#129 = CC_DESIGN_PERSON_AND_ORGANIZATION_ASSIGNMENT ( #35, #310, ( #113 ) ) ;
#130 = EDGE_LOOP ( 'NONE', ( #290, #47, #185, #169 ) ) ;
#131 = CARTESIAN_POINT ( 'NONE',  ( -7.500000000000000000, 7.499999999999998200, 7.500000000000000000 ) ) ;
#132 = CARTESIAN_POINT ( 'NONE',  ( -6.133173666733495600E-016, -6.133173666733495600E-016, -7.500000000000000000 ) ) ;
#133 = FACE_OUTER_BOUND ( 'NONE', #256, .T. ) ;
#134 = EDGE_CURVE ( 'NONE', #71, #244, #207, .T. ) ;
#135 = AXIS2_PLACEMENT_3D ( 'NONE', #316, #252, #99 ) ;
#136 = ORIENTED_EDGE ( 'NONE', *, *, #122, .F. ) ;
#137 = CARTESIAN_POINT ( 'NONE',  ( -7.500000000000000000, 7.499999999999998200, -7.500000000000000000 ) ) ;
#138 = EDGE_CURVE ( 'NONE', #257, #242, #142, .T. ) ;
#139 = PLANE ( 'NONE',  #312 ) ;
#140 = ADVANCED_FACE ( 'NONE', ( #250 ), #77, .F. ) ;
#141 = VECTOR ( 'NONE', #227, 1000.000000000000100 ) ;
#142 = LINE ( 'NONE', #29, #33 ) ;
#143 = CC_DESIGN_DATE_AND_TIME_ASSIGNMENT ( #160, #84, ( #113 ) ) ;
#144 = CARTESIAN_POINT ( 'NONE',  ( 0.0000000000000000000, 7.499999999999999100, 7.500000000000000000 ) ) ;
#145 = CARTESIAN_POINT ( 'NONE',  ( 7.499999999999998200, -7.500000000000000000, 7.500000000000000000 ) ) ;
#146 = APPROVAL_PERSON_ORGANIZATION ( #309, #159, #108 ) ;
#147 = FACE_OUTER_BOUND ( 'NONE', #118, .T. ) ;
#148 = VERTEX_POINT ( 'NONE', #284 ) ;
#149 = SHAPE_DEFINITION_REPRESENTATION ( #269, #196 ) ;
#150 = CALENDAR_DATE ( 2017, 6, 6 ) ;
#151 = DIRECTION ( 'NONE',  ( 1.000000000000000000, 0.0000000000000000000, 0.0000000000000000000 ) ) ;
#152 = DIRECTION ( 'NONE',  ( -0.0000000000000000000, 0.0000000000000000000, 1.000000000000000000 ) ) ;
#153 = EDGE_CURVE ( 'NONE', #167, #263, #274, .T. ) ;
#154 = CALENDAR_DATE ( 2017, 6, 6 ) ;
#155 = ORIENTED_EDGE ( 'NONE', *, *, #89, .T. ) ;
#156 = VECTOR ( 'NONE', #314, 1000.000000000000000 ) ;
#157 = EDGE_LOOP ( 'NONE', ( #236, #158, #230 ) ) ;
#158 = ORIENTED_EDGE ( 'NONE', *, *, #127, .T. ) ;
#159 = APPROVAL ( #195, 'UNSPECIFIED' ) ;
#160 = DATE_AND_TIME ( #150, #24 ) ;
#161 = FACE_OUTER_BOUND ( 'NONE', #120, .T. ) ;
#162 = ADVANCED_FACE ( 'NONE', ( #147 ), #119, .T. ) ;
#163 = LINE ( 'NONE', #132, #141 ) ;
#164 = DIRECTION ( 'NONE',  ( -0.0000000000000000000, -0.0000000000000000000, -1.000000000000000000 ) ) ;
#165 = AXIS2_PLACEMENT_3D ( 'NONE', #58, #152, #183 ) ;
#166 = EDGE_CURVE ( 'NONE', #300, #242, #278, .T. ) ;
#167 = VERTEX_POINT ( 'NONE', #188 ) ;
#168 = DIRECTION ( 'NONE',  ( 0.7071067811865474600, -0.7071067811865474600, 0.0000000000000000000 ) ) ;
#169 = ORIENTED_EDGE ( 'NONE', *, *, #100, .T. ) ;
#170 = EDGE_CURVE ( 'NONE', #12, #257, #173, .T. ) ;
#171 = VECTOR ( 'NONE', #273, 1000.000000000000000 ) ;
#172 = CC_DESIGN_APPROVAL ( #159, ( #113 ) ) ;
#173 = LINE ( 'NONE', #13, #32 ) ;
#174 = PERSON_AND_ORGANIZATION ( #237, #240 ) ;
#175 = CARTESIAN_POINT ( 'NONE',  ( 7.499999999999998200, 7.499999999999999100, 7.500000000000000000 ) ) ;
#176 = ORIENTED_EDGE ( 'NONE', *, *, #100, .F. ) ;
#177 = DIRECTION ( 'NONE',  ( -0.0000000000000000000, 0.0000000000000000000, 1.000000000000000000 ) ) ;
#178 = LOCAL_TIME ( 12, 59, 30.00000000000000000, #303 ) ;
#179 = LINE ( 'NONE', #204, #10 ) ;
#180 = ORIENTED_EDGE ( 'NONE', *, *, #166, .F. ) ;
#181 = LINE ( 'NONE', #241, #171 ) ;
#182 = EDGE_CURVE ( 'NONE', #12, #300, #211, .T. ) ;
#183 = DIRECTION ( 'NONE',  ( 1.000000000000000000, 0.0000000000000000000, 0.0000000000000000000 ) ) ;
#184 = EDGE_LOOP ( 'NONE', ( #101, #64, #18, #95 ) ) ;
#185 = ORIENTED_EDGE ( 'NONE', *, *, #246, .T. ) ;
#186 = ADVANCED_FACE ( 'NONE', ( #220 ), #111, .F. ) ;
#187 = DIRECTION ( 'NONE',  ( 1.000000000000000000, 0.0000000000000000000, 0.0000000000000000000 ) ) ;
#188 = CARTESIAN_POINT ( 'NONE',  ( -7.500000000000000000, 7.499999999999998200, 7.500000000000000000 ) ) ;
#189 = CC_DESIGN_SECURITY_CLASSIFICATION ( #113, ( #14 ) ) ;
#190 = ORIENTED_EDGE ( 'NONE', *, *, #28, .T. ) ;
#191 =( NAMED_UNIT ( * ) PLANE_ANGLE_UNIT ( ) SI_UNIT ( $, .RADIAN. ) );
#192 = CARTESIAN_POINT ( 'NONE',  ( -7.500000000000000000, -7.499999999999999100, 7.500000000000000000 ) ) ;
#193 = ORIENTED_EDGE ( 'NONE', *, *, #28, .F. ) ;
#194 = ORIENTED_EDGE ( 'NONE', *, *, #153, .F. ) ;
#195 = APPROVAL_STATUS ( 'not_yet_approved' ) ;
#196 = ADVANCED_BREP_SHAPE_REPRESENTATION ( 'Web Model 47047_47125', ( #287, #96, #233 ), #216 ) ;
#197 = VECTOR ( 'NONE', #187, 1000.000000000000000 ) ;
#198 = AXIS2_PLACEMENT_3D ( 'NONE', #320, #311, #254 ) ;
#199 = CARTESIAN_POINT ( 'NONE',  ( 7.499999999999998200, 0.0000000000000000000, -7.500000000000000000 ) ) ;
#200 = PLANE ( 'NONE',  #135 ) ;
#201 = EDGE_CURVE ( 'NONE', #71, #263, #65, .T. ) ;
#202 = CARTESIAN_POINT ( 'NONE',  ( -7.500000000000000000, -7.499999999999999100, 7.500000000000000000 ) ) ;
#203 = DIRECTION ( 'NONE',  ( -0.0000000000000000000, -0.0000000000000000000, -1.000000000000000000 ) ) ;
#204 = CARTESIAN_POINT ( 'NONE',  ( -7.500000000000000000, 7.499999999999998200, 7.500000000000000000 ) ) ;
#205 = DIRECTION ( 'NONE',  ( 1.000000000000000000, 0.0000000000000000000, 0.0000000000000000000 ) ) ;
#206 = LOCAL_TIME ( 12, 59, 30.00000000000000000, #11 ) ;
#207 = LINE ( 'NONE', #192, #31 ) ;
#208 = DIRECTION ( 'NONE',  ( 0.7071067811865475700, 0.7071067811865475700, -0.0000000000000000000 ) ) ;
#209 = PRODUCT_RELATED_PRODUCT_CATEGORY ( 'detail', '', ( #296 ) ) ;
#210 = PERSON_AND_ORGANIZATION ( #237, #240 ) ;
#211 = LINE ( 'NONE', #131, #86 ) ;
#212 = ADVANCED_FACE ( 'NONE', ( #41 ), #200, .T. ) ;
#213 = CARTESIAN_POINT ( 'NONE',  ( 0.0000000000000000000, 0.0000000000000000000, -7.500000000000000000 ) ) ;
#214 = CARTESIAN_POINT ( 'NONE',  ( 0.0000000000000000000, 0.0000000000000000000, 7.500000000000000000 ) ) ;
#215 = CLOSED_SHELL ( 'NONE', ( #212, #66, #285, #162, #140 ) ) ;
#216 =( GEOMETRIC_REPRESENTATION_CONTEXT ( 3 ) GLOBAL_UNCERTAINTY_ASSIGNED_CONTEXT ( ( #62 ) ) GLOBAL_UNIT_ASSIGNED_CONTEXT ( ( #279, #191, #22 ) ) REPRESENTATION_CONTEXT ( 'NONE', 'WORKASPACE' ) );
#217 = PLANE ( 'NONE',  #282 ) ;
#218 = VECTOR ( 'NONE', #299, 1000.000000000000000 ) ;
#219 = FACE_OUTER_BOUND ( 'NONE', #239, .T. ) ;
#220 = FACE_OUTER_BOUND ( 'NONE', #315, .T. ) ;
#221 = ORIENTED_EDGE ( 'NONE', *, *, #182, .F. ) ;
#222 = CARTESIAN_POINT ( 'NONE',  ( 0.0000000000000000000, -7.499999999999999100, 7.500000000000000000 ) ) ;
#223 = CARTESIAN_POINT ( 'NONE',  ( 7.499999999999998200, -7.500000000000000000, -7.500000000000000000 ) ) ;
#224 = CARTESIAN_POINT ( 'NONE',  ( 7.499999999999998200, 0.0000000000000000000, 7.500000000000000000 ) ) ;
#225 = APPROVAL_ROLE ( '' ) ;
#226 = DIRECTION ( 'NONE',  ( 0.0000000000000000000, -0.0000000000000000000, 1.000000000000000000 ) ) ;
#227 = DIRECTION ( 'NONE',  ( 0.7071067811865474600, -0.7071067811865474600, 0.0000000000000000000 ) ) ;
#228 = PERSON_AND_ORGANIZATION_ROLE ( 'creator' ) ;
#229 = DIRECTION ( 'NONE',  ( 1.000000000000000000, 0.0000000000000000000, 0.0000000000000000000 ) ) ;
#230 = ORIENTED_EDGE ( 'NONE', *, *, #76, .F. ) ;
#231 = DATE_AND_TIME ( #40, #57 ) ;
#232 = DIRECTION ( 'NONE',  ( -0.7071067811865474600, 0.7071067811865474600, 0.0000000000000000000 ) ) ;
#233 = AXIS2_PLACEMENT_3D ( 'NONE', #23, #80, #205 ) ;
#234 = CARTESIAN_POINT ( 'NONE',  ( 0.0000000000000000000, -7.499999999999999100, -7.500000000000000000 ) ) ;
#235 = AXIS2_PLACEMENT_3D ( 'NONE', #144, #16, #39 ) ;
#236 = ORIENTED_EDGE ( 'NONE', *, *, #87, .T. ) ;
#237 = PERSON ( 'UNSPECIFIED', 'UNSPECIFIED', 'UNSPECIFIED', ('UNSPECIFIED'), ('UNSPECIFIED'), ('UNSPECIFIED') ) ;
#238 = APPLICATION_PROTOCOL_DEFINITION ( 'international standard', 'config_control_design', 1994, #249 ) ;
#239 = EDGE_LOOP ( 'NONE', ( #268, #176, #9, #109 ) ) ;
#240 = ORGANIZATION ( 'UNSPECIFIED', 'UNSPECIFIED', '' ) ;
#241 = CARTESIAN_POINT ( 'NONE',  ( -7.500000000000000000, 0.0000000000000000000, 7.500000000000000000 ) ) ;
#242 = VERTEX_POINT ( 'NONE', #34 ) ;
#243 = CALENDAR_DATE ( 2017, 6, 6 ) ;
#244 = VERTEX_POINT ( 'NONE', #104 ) ;
#245 = ORIENTED_EDGE ( 'NONE', *, *, #134, .T. ) ;
#246 = EDGE_CURVE ( 'NONE', #71, #167, #181, .T. ) ;
#247 = APPLICATION_CONTEXT ( 'configuration controlled 3d designs of mechanical parts and assemblies' ) ;
#248 = CC_DESIGN_PERSON_AND_ORGANIZATION_ASSIGNMENT ( #79, #68, ( #296 ) ) ;
#249 = APPLICATION_CONTEXT ( 'configuration controlled 3d designs of mechanical parts and assemblies' ) ;
#250 = FACE_OUTER_BOUND ( 'NONE', #157, .T. ) ;
#251 = EDGE_CURVE ( 'NONE', #242, #7, #59, .T. ) ;
#252 = DIRECTION ( 'NONE',  ( -1.000000000000000000, 0.0000000000000000000, 0.0000000000000000000 ) ) ;
#253 = AXIS2_PLACEMENT_3D ( 'NONE', #270, #208, #232 ) ;
#254 = DIRECTION ( 'NONE',  ( -0.7071067811865474600, 0.7071067811865474600, 0.0000000000000000000 ) ) ;
#255 = DESIGN_CONTEXT ( 'detailed design', #247, 'design' ) ;
#256 = EDGE_LOOP ( 'NONE', ( #25, #123, #26, #245 ) ) ;
#257 = VERTEX_POINT ( 'NONE', #145 ) ;
#258 = CARTESIAN_POINT ( 'NONE',  ( 7.499999999999998200, -7.500000000000000000, 7.500000000000000000 ) ) ;
#259 = CARTESIAN_POINT ( 'NONE',  ( -7.500000000000000000, 0.0000000000000000000, -7.500000000000000000 ) ) ;
#260 = ADVANCED_FACE ( 'NONE', ( #70 ), #74, .T. ) ;
#261 = PRODUCT_DEFINITION ( 'UNKNOWN', '', #14, #255 ) ;
#262 = VECTOR ( 'NONE', #304, 1000.000000000000000 ) ;
#263 = VERTEX_POINT ( 'NONE', #289 ) ;
#264 = DIRECTION ( 'NONE',  ( 0.0000000000000000000, 1.000000000000000000, 0.0000000000000000000 ) ) ;
#265 = APPROVAL_STATUS ( 'not_yet_approved' ) ;
#266 = CARTESIAN_POINT ( 'NONE',  ( 7.499999999999998200, 0.0000000000000000000, 7.500000000000000000 ) ) ;
#267 = CLOSED_SHELL ( 'NONE', ( #37, #88, #306, #260, #186 ) ) ;
#268 = ORIENTED_EDGE ( 'NONE', *, *, #127, .F. ) ;
#269 = PRODUCT_DEFINITION_SHAPE ( 'NONE', 'NONE',  #261 ) ;
#270 = CARTESIAN_POINT ( 'NONE',  ( -6.133173666733495600E-016, -6.133173666733495600E-016, 7.500000000000000000 ) ) ;
#271 = FACE_OUTER_BOUND ( 'NONE', #93, .T. ) ;
#272 = LINE ( 'NONE', #175, #218 ) ;
#273 = DIRECTION ( 'NONE',  ( 0.0000000000000000000, 1.000000000000000000, -0.0000000000000000000 ) ) ;
#274 = LINE ( 'NONE', #112, #49 ) ;
#275 = ORIENTED_EDGE ( 'NONE', *, *, #251, .F. ) ;
#276 = ORIENTED_EDGE ( 'NONE', *, *, #27, .T. ) ;
#277 = CALENDAR_DATE ( 2017, 6, 6 ) ;
#278 = LINE ( 'NONE', #81, #313 ) ;
#279 =( LENGTH_UNIT ( ) NAMED_UNIT ( * ) SI_UNIT ( .MILLI., .METRE. ) );
#280 = APPROVAL ( #265, 'UNSPECIFIED' ) ;
#281 = ORIENTED_EDGE ( 'NONE', *, *, #27, .F. ) ;
#282 = AXIS2_PLACEMENT_3D ( 'NONE', #222, #264, #226 ) ;
#283 = LINE ( 'NONE', #234, #292 ) ;
#284 = CARTESIAN_POINT ( 'NONE',  ( 7.499999999999998200, 7.499999999999999100, 7.500000000000000000 ) ) ;
#285 = ADVANCED_FACE ( 'NONE', ( #219 ), #1, .T. ) ;
#286 = VECTOR ( 'NONE', #20, 1000.000000000000000 ) ;
#287 = MANIFOLD_SOLID_BREP ( 'Boss-Extrude2', #215 ) ;
#288 = CARTESIAN_POINT ( 'NONE',  ( -7.500000000000000000, 7.499999999999998200, 7.500000000000000000 ) ) ;
#289 = CARTESIAN_POINT ( 'NONE',  ( 7.499999999999998200, -7.500000000000000000, 7.500000000000000000 ) ) ;
#290 = ORIENTED_EDGE ( 'NONE', *, *, #87, .F. ) ;
#291 = COORDINATED_UNIVERSAL_TIME_OFFSET ( 5, 0, .BEHIND. ) ;
#292 = VECTOR ( 'NONE', #128, 1000.000000000000000 ) ;
#293 = ORIENTED_EDGE ( 'NONE', *, *, #122, .T. ) ;
#294 = CC_DESIGN_APPROVAL ( #280, ( #261 ) ) ;
#295 = DIRECTION ( 'NONE',  ( 0.0000000000000000000, 0.0000000000000000000, 1.000000000000000000 ) ) ;
#296 = PRODUCT ( 'Web Model 47047_47125', 'Web Model 47047_47125', '', ( #317 ) ) ;
#297 = DIRECTION ( 'NONE',  ( -0.0000000000000000000, -0.0000000000000000000, -1.000000000000000000 ) ) ;
#298 = PERSON_AND_ORGANIZATION ( #237, #240 ) ;
#299 = DIRECTION ( 'NONE',  ( -0.0000000000000000000, -0.0000000000000000000, -1.000000000000000000 ) ) ;
#300 = VERTEX_POINT ( 'NONE', #53 ) ;
#301 = VECTOR ( 'NONE', #151, 1000.000000000000000 ) ;
#302 = DATE_AND_TIME ( #243, #178 ) ;
#303 = COORDINATED_UNIVERSAL_TIME_OFFSET ( 5, 0, .BEHIND. ) ;
#304 = DIRECTION ( 'NONE',  ( 0.0000000000000000000, 1.000000000000000000, -0.0000000000000000000 ) ) ;
#305 = CARTESIAN_POINT ( 'NONE',  ( 0.0000000000000000000, 0.0000000000000000000, -7.500000000000000000 ) ) ;
#306 = ADVANCED_FACE ( 'NONE', ( #161 ), #50, .T. ) ;
#307 = LINE ( 'NONE', #15, #286 ) ;
#308 = CC_DESIGN_PERSON_AND_ORGANIZATION_ASSIGNMENT ( #36, #228, ( #261 ) ) ;
#309 = PERSON_AND_ORGANIZATION ( #237, #240 ) ;
#310 = PERSON_AND_ORGANIZATION_ROLE ( 'classification_officer' ) ;
#311 = DIRECTION ( 'NONE',  ( 0.7071067811865475700, 0.7071067811865475700, -0.0000000000000000000 ) ) ;
#312 = AXIS2_PLACEMENT_3D ( 'NONE', #224, #83, #295 ) ;
#313 = VECTOR ( 'NONE', #114, 1000.000000000000100 ) ;
#314 = DIRECTION ( 'NONE',  ( 0.0000000000000000000, 1.000000000000000000, -0.0000000000000000000 ) ) ;
#315 = EDGE_LOOP ( 'NONE', ( #180, #190, #275 ) ) ;
#316 = CARTESIAN_POINT ( 'NONE',  ( -7.500000000000000000, 0.0000000000000000000, 7.500000000000000000 ) ) ;
#317 = MECHANICAL_CONTEXT ( 'NONE', #249, 'mechanical' ) ;
#318 = CC_DESIGN_DATE_AND_TIME_ASSIGNMENT ( #91, #63, ( #261 ) ) ;
#319 = COORDINATED_UNIVERSAL_TIME_OFFSET ( 5, 0, .BEHIND. ) ;
#320 = CARTESIAN_POINT ( 'NONE',  ( -6.133173666733495600E-016, -6.133173666733495600E-016, 7.500000000000000000 ) ) ;
#321 = DIRECTION ( 'NONE',  ( 1.000000000000000000, 0.0000000000000000000, 0.0000000000000000000 ) ) ;
ENDSEC;
END-ISO-10303-21;
