ISO-10303-21;
HEADER;
FILE_DESCRIPTION (( 'STEP AP203' ),
    '1' );
FILE_NAME ('Web Model 14964_14964.step',
    '2020-07-27T18:42:49',
    ( '' ),
    ( '' ),
    'SwSTEP 2.0',
    'SolidWorks 2018',
    '' );
FILE_SCHEMA (( 'CONFIG_CONTROL_DESIGN' ));
ENDSEC;

DATA;
#1 = CC_DESIGN_APPROVAL ( #171, ( #109 ) ) ;
#2 = CARTESIAN_POINT ( 'NONE',  ( 2.000000000000000000, 0.0000000000000000000, 0.0000000000000000000 ) ) ;
#3 = PLANE ( 'NONE',  #86 ) ;
#4 = ORIENTED_EDGE ( 'NONE', *, *, #26, .F. ) ;
#5 = MECHANICAL_CONTEXT ( 'NONE', #58, 'mechanical' ) ;
#6 = EDGE_LOOP ( 'NONE', ( #146, #43 ) ) ;
#7 = PERSON_AND_ORGANIZATION_ROLE ( 'classification_officer' ) ;
#8 = ORIENTED_EDGE ( 'NONE', *, *, #40, .F. ) ;
#9 = PERSON_AND_ORGANIZATION ( #104, #174 ) ;
#10 = PERSON_AND_ORGANIZATION ( #104, #174 ) ;
#11 = ORIENTED_EDGE ( 'NONE', *, *, #56, .T. ) ;
#12 = FACE_OUTER_BOUND ( 'NONE', #41, .T. ) ;
#13 = EDGE_LOOP ( 'NONE', ( #32, #80, #94, #11 ) ) ;
#14 = DIRECTION ( 'NONE',  ( 1.000000000000000000, 0.0000000000000000000, 0.0000000000000000000 ) ) ;
#15 = CARTESIAN_POINT ( 'NONE',  ( 2.000000000000000000, 0.0000000000000000000, 12.50000000000000000 ) ) ;
#16 = DIRECTION ( 'NONE',  ( 0.0000000000000000000, 0.0000000000000000000, -1.000000000000000000 ) ) ;
#17 = APPROVAL_ROLE ( '' ) ;
#18 = LOCAL_TIME ( 14, 42, 49.00000000000000000, #57 ) ;
#19 = COORDINATED_UNIVERSAL_TIME_OFFSET ( 5, 0, .BEHIND. ) ;
#20 =( GEOMETRIC_REPRESENTATION_CONTEXT ( 3 ) GLOBAL_UNCERTAINTY_ASSIGNED_CONTEXT ( ( #163 ) ) GLOBAL_UNIT_ASSIGNED_CONTEXT ( ( #113, #79, #96 ) ) REPRESENTATION_CONTEXT ( 'NONE', 'WORKASPACE' ) );
#21 = COORDINATED_UNIVERSAL_TIME_OFFSET ( 5, 0, .BEHIND. ) ;
#22 = CC_DESIGN_PERSON_AND_ORGANIZATION_ASSIGNMENT ( #120, #141, ( #160 ) ) ;
#23 = DATE_AND_TIME ( #93, #18 ) ;
#24 = VERTEX_POINT ( 'NONE', #119 ) ;
#25 = ADVANCED_BREP_SHAPE_REPRESENTATION ( 'Web Model 14964_14964', ( #103, #122 ), #20 ) ;
#26 = EDGE_CURVE ( 'NONE', #24, #117, #83, .T. ) ;
#27 = COORDINATED_UNIVERSAL_TIME_OFFSET ( 5, 0, .BEHIND. ) ;
#28 = APPROVAL ( #129, 'UNSPECIFIED' ) ;
#29 = DIRECTION ( 'NONE',  ( 0.0000000000000000000, 0.0000000000000000000, -1.000000000000000000 ) ) ;
#30 = PRODUCT_DEFINITION_SHAPE ( 'NONE', 'NONE',  #139 ) ;
#31 = CARTESIAN_POINT ( 'NONE',  ( -2.000000000000000000, 0.0000000000000000000, 0.0000000000000000000 ) ) ;
#32 = ORIENTED_EDGE ( 'NONE', *, *, #75, .F. ) ;
#33 = CARTESIAN_POINT ( 'NONE',  ( 0.0000000000000000000, 0.0000000000000000000, 0.0000000000000000000 ) ) ;
#34 = CARTESIAN_POINT ( 'NONE',  ( 2.000000000000000000, 0.0000000000000000000, 0.0000000000000000000 ) ) ;
#35 = APPROVAL_STATUS ( 'not_yet_approved' ) ;
#36 = PERSON_AND_ORGANIZATION_ROLE ( 'creator' ) ;
#37 = DATE_TIME_ROLE ( 'creation_date' ) ;
#38 = PERSON_AND_ORGANIZATION_ROLE ( 'creator' ) ;
#39 = VERTEX_POINT ( 'NONE', #69 ) ;
#40 = EDGE_CURVE ( 'NONE', #55, #24, #159, .T. ) ;
#41 = EDGE_LOOP ( 'NONE', ( #8, #76, #166, #4 ) ) ;
#42 = CC_DESIGN_DATE_AND_TIME_ASSIGNMENT ( #68, #142, ( #109 ) ) ;
#43 = ORIENTED_EDGE ( 'NONE', *, *, #125, .F. ) ;
#44 = ADVANCED_FACE ( 'NONE', ( #158 ), #3, .T. ) ;
#45 = CC_DESIGN_DATE_AND_TIME_ASSIGNMENT ( #23, #37, ( #139 ) ) ;
#46 = DIRECTION ( 'NONE',  ( 0.0000000000000000000, 0.0000000000000000000, -1.000000000000000000 ) ) ;
#47 = CC_DESIGN_PERSON_AND_ORGANIZATION_ASSIGNMENT ( #10, #7, ( #109 ) ) ;
#48 = SECURITY_CLASSIFICATION_LEVEL ( 'unclassified' ) ;
#49 = APPROVAL_DATE_TIME ( #82, #28 ) ;
#50 = CARTESIAN_POINT ( 'NONE',  ( 2.000000000000000000, 1.530808498934191521E-15, -12.50000000000000000 ) ) ;
#51 = VECTOR ( 'NONE', #137, 1000.000000000000000 ) ;
#52 = AXIS2_PLACEMENT_3D ( 'NONE', #92, #14, #126 ) ;
#53 = CC_DESIGN_PERSON_AND_ORGANIZATION_ASSIGNMENT ( #157, #38, ( #160 ) ) ;
#54 = CYLINDRICAL_SURFACE ( 'NONE', #134, 12.50000000000000000 ) ;
#55 = VERTEX_POINT ( 'NONE', #50 ) ;
#56 = EDGE_CURVE ( 'NONE', #117, #39, #124, .T. ) ;
#57 = COORDINATED_UNIVERSAL_TIME_OFFSET ( 5, 0, .BEHIND. ) ;
#58 = APPLICATION_CONTEXT ( 'configuration controlled 3d designs of mechanical parts and assemblies' ) ;
#59 = APPROVAL_PERSON_ORGANIZATION ( #165, #28, #101 ) ;
#60 = DIRECTION ( 'NONE',  ( 0.0000000000000000000, 0.0000000000000000000, 1.000000000000000000 ) ) ;
#61 = DIRECTION ( 'NONE',  ( 0.0000000000000000000, 0.0000000000000000000, -1.000000000000000000 ) ) ;
#62 = APPROVAL_PERSON_ORGANIZATION ( #90, #169, #100 ) ;
#63 = APPLICATION_PROTOCOL_DEFINITION ( 'international standard', 'config_control_design', 1994, #58 ) ;
#64 = CIRCLE ( 'NONE', #128, 12.50000000000000000 ) ;
#65 = CIRCLE ( 'NONE', #150, 12.50000000000000000 ) ;
#66 = CLOSED_SHELL ( 'NONE', ( #89, #148, #44, #135 ) ) ;
#67 = DATE_AND_TIME ( #116, #149 ) ;
#68 = DATE_AND_TIME ( #112, #110 ) ;
#69 = CARTESIAN_POINT ( 'NONE',  ( -2.000000000000000000, 1.530808498934191521E-15, -12.50000000000000000 ) ) ;
#70 = CARTESIAN_POINT ( 'NONE',  ( -2.000000000000000000, 0.0000000000000000000, 0.0000000000000000000 ) ) ;
#71 = PLANE ( 'NONE',  #154 ) ;
#72 = DIRECTION ( 'NONE',  ( 0.0000000000000000000, 0.0000000000000000000, 1.000000000000000000 ) ) ;
#73 = FACE_OUTER_BOUND ( 'NONE', #13, .T. ) ;
#74 = AXIS2_PLACEMENT_3D ( 'NONE', #81, #91, #72 ) ;
#75 = EDGE_CURVE ( 'NONE', #55, #39, #173, .T. ) ;
#76 = ORIENTED_EDGE ( 'NONE', *, *, #75, .T. ) ;
#77 = VECTOR ( 'NONE', #115, 1000.000000000000000 ) ;
#78 = DIRECTION ( 'NONE',  ( 1.000000000000000000, 0.0000000000000000000, 0.0000000000000000000 ) ) ;
#79 =( NAMED_UNIT ( * ) PLANE_ANGLE_UNIT ( ) SI_UNIT ( $, .RADIAN. ) );
#80 = ORIENTED_EDGE ( 'NONE', *, *, #143, .F. ) ;
#81 = CARTESIAN_POINT ( 'NONE',  ( 2.000000000000000000, 0.0000000000000000000, 0.0000000000000000000 ) ) ;
#82 = DATE_AND_TIME ( #123, #161 ) ;
#83 = LINE ( 'NONE', #15, #51 ) ;
#84 = APPLICATION_PROTOCOL_DEFINITION ( 'international standard', 'config_control_design', 1994, #155 ) ;
#85 = EDGE_LOOP ( 'NONE', ( #145, #140 ) ) ;
#86 = AXIS2_PLACEMENT_3D ( 'NONE', #34, #127, #61 ) ;
#87 = PERSON_AND_ORGANIZATION ( #104, #174 ) ;
#88 = LOCAL_TIME ( 14, 42, 49.00000000000000000, #21 ) ;
#89 = ADVANCED_FACE ( 'NONE', ( #12 ), #54, .T. ) ;
#90 = PERSON_AND_ORGANIZATION ( #104, #174 ) ;
#91 = DIRECTION ( 'NONE',  ( -1.000000000000000000, -0.0000000000000000000, -0.0000000000000000000 ) ) ;
#92 = CARTESIAN_POINT ( 'NONE',  ( 2.000000000000000000, 0.0000000000000000000, 0.0000000000000000000 ) ) ;
#93 = CALENDAR_DATE ( 2020, 27, 7 ) ;
#94 = ORIENTED_EDGE ( 'NONE', *, *, #26, .T. ) ;
#95 = DIRECTION ( 'NONE',  ( 1.000000000000000000, 0.0000000000000000000, 0.0000000000000000000 ) ) ;
#96 =( NAMED_UNIT ( * ) SI_UNIT ( $, .STERADIAN. ) SOLID_ANGLE_UNIT ( ) );
#97 = DIRECTION ( 'NONE',  ( 0.0000000000000000000, 0.0000000000000000000, 1.000000000000000000 ) ) ;
#98 = APPROVAL_STATUS ( 'not_yet_approved' ) ;
#99 = CC_DESIGN_APPROVAL ( #169, ( #139 ) ) ;
#100 = APPROVAL_ROLE ( '' ) ;
#101 = APPROVAL_ROLE ( '' ) ;
#102 = PERSON_AND_ORGANIZATION ( #104, #174 ) ;
#103 = MANIFOLD_SOLID_BREP ( 'Boss-Extrude1', #66 ) ;
#104 = PERSON ( 'UNSPECIFIED', 'UNSPECIFIED', 'UNSPECIFIED', ('UNSPECIFIED'), ('UNSPECIFIED'), ('UNSPECIFIED') ) ;
#105 = APPROVAL_PERSON_ORGANIZATION ( #9, #171, #17 ) ;
#106 = CALENDAR_DATE ( 2020, 27, 7 ) ;
#107 = PRODUCT ( 'Web Model 14964_14964', 'Web Model 14964_14964', '', ( #5 ) ) ;
#108 = APPROVAL_DATE_TIME ( #67, #171 ) ;
#109 = SECURITY_CLASSIFICATION ( '', '', #48 ) ;
#110 = LOCAL_TIME ( 14, 42, 49.00000000000000000, #27 ) ;
#111 = CC_DESIGN_SECURITY_CLASSIFICATION ( #109, ( #160 ) ) ;
#112 = CALENDAR_DATE ( 2020, 27, 7 ) ;
#113 =( LENGTH_UNIT ( ) NAMED_UNIT ( * ) SI_UNIT ( .MILLI., .METRE. ) );
#114 = DIRECTION ( 'NONE',  ( 1.000000000000000000, 0.0000000000000000000, 0.0000000000000000000 ) ) ;
#115 = DIRECTION ( 'NONE',  ( -1.000000000000000000, -0.0000000000000000000, -0.0000000000000000000 ) ) ;
#116 = CALENDAR_DATE ( 2020, 27, 7 ) ;
#117 = VERTEX_POINT ( 'NONE', #168 ) ;
#118 = AXIS2_PLACEMENT_3D ( 'NONE', #70, #78, #46 ) ;
#119 = CARTESIAN_POINT ( 'NONE',  ( 2.000000000000000000, 0.0000000000000000000, 12.50000000000000000 ) ) ;
#120 = PERSON_AND_ORGANIZATION ( #104, #174 ) ;
#121 = FACE_OUTER_BOUND ( 'NONE', #6, .T. ) ;
#122 = AXIS2_PLACEMENT_3D ( 'NONE', #33, #60, #156 ) ;
#123 = CALENDAR_DATE ( 2020, 27, 7 ) ;
#124 = CIRCLE ( 'NONE', #118, 12.50000000000000000 ) ;
#125 = EDGE_CURVE ( 'NONE', #39, #117, #64, .T. ) ;
#126 = DIRECTION ( 'NONE',  ( 0.0000000000000000000, 0.0000000000000000000, -1.000000000000000000 ) ) ;
#127 = DIRECTION ( 'NONE',  ( 1.000000000000000000, 0.0000000000000000000, 0.0000000000000000000 ) ) ;
#128 = AXIS2_PLACEMENT_3D ( 'NONE', #151, #114, #167 ) ;
#129 = APPROVAL_STATUS ( 'not_yet_approved' ) ;
#130 = CYLINDRICAL_SURFACE ( 'NONE', #74, 12.50000000000000000 ) ;
#131 = CC_DESIGN_PERSON_AND_ORGANIZATION_ASSIGNMENT ( #102, #172, ( #107 ) ) ;
#132 = SHAPE_DEFINITION_REPRESENTATION ( #30, #25 ) ;
#133 = CC_DESIGN_PERSON_AND_ORGANIZATION_ASSIGNMENT ( #87, #36, ( #139 ) ) ;
#134 = AXIS2_PLACEMENT_3D ( 'NONE', #138, #152, #97 ) ;
#135 = ADVANCED_FACE ( 'NONE', ( #121 ), #71, .F. ) ;
#136 = DATE_AND_TIME ( #106, #88 ) ;
#137 = DIRECTION ( 'NONE',  ( -1.000000000000000000, -0.0000000000000000000, -0.0000000000000000000 ) ) ;
#138 = CARTESIAN_POINT ( 'NONE',  ( 2.000000000000000000, 0.0000000000000000000, 0.0000000000000000000 ) ) ;
#139 = PRODUCT_DEFINITION ( 'UNKNOWN', '', #160, #147 ) ;
#140 = ORIENTED_EDGE ( 'NONE', *, *, #40, .T. ) ;
#141 = PERSON_AND_ORGANIZATION_ROLE ( 'design_supplier' ) ;
#142 = DATE_TIME_ROLE ( 'classification_date' ) ;
#143 = EDGE_CURVE ( 'NONE', #24, #55, #65, .T. ) ;
#144 = CC_DESIGN_APPROVAL ( #28, ( #160 ) ) ;
#145 = ORIENTED_EDGE ( 'NONE', *, *, #143, .T. ) ;
#146 = ORIENTED_EDGE ( 'NONE', *, *, #56, .F. ) ;
#147 = DESIGN_CONTEXT ( 'detailed design', #155, 'design' ) ;
#148 = ADVANCED_FACE ( 'NONE', ( #73 ), #130, .T. ) ;
#149 = LOCAL_TIME ( 14, 42, 49.00000000000000000, #170 ) ;
#150 = AXIS2_PLACEMENT_3D ( 'NONE', #2, #95, #16 ) ;
#151 = CARTESIAN_POINT ( 'NONE',  ( -2.000000000000000000, 0.0000000000000000000, 0.0000000000000000000 ) ) ;
#152 = DIRECTION ( 'NONE',  ( -1.000000000000000000, -0.0000000000000000000, -0.0000000000000000000 ) ) ;
#153 = DIRECTION ( 'NONE',  ( 1.000000000000000000, 0.0000000000000000000, 0.0000000000000000000 ) ) ;
#154 = AXIS2_PLACEMENT_3D ( 'NONE', #31, #153, #29 ) ;
#155 = APPLICATION_CONTEXT ( 'configuration controlled 3d designs of mechanical parts and assemblies' ) ;
#156 = DIRECTION ( 'NONE',  ( 1.000000000000000000, 0.0000000000000000000, 0.0000000000000000000 ) ) ;
#157 = PERSON_AND_ORGANIZATION ( #104, #174 ) ;
#158 = FACE_OUTER_BOUND ( 'NONE', #85, .T. ) ;
#159 = CIRCLE ( 'NONE', #52, 12.50000000000000000 ) ;
#160 = PRODUCT_DEFINITION_FORMATION_WITH_SPECIFIED_SOURCE ( 'ANY', '', #107, .NOT_KNOWN. ) ;
#161 = LOCAL_TIME ( 14, 42, 49.00000000000000000, #19 ) ;
#162 = PRODUCT_RELATED_PRODUCT_CATEGORY ( 'detail', '', ( #107 ) ) ;
#163 = UNCERTAINTY_MEASURE_WITH_UNIT (LENGTH_MEASURE( 1.000000000000000082E-05 ), #113, 'distance_accuracy_value', 'NONE');
#164 = APPROVAL_DATE_TIME ( #136, #169 ) ;
#165 = PERSON_AND_ORGANIZATION ( #104, #174 ) ;
#166 = ORIENTED_EDGE ( 'NONE', *, *, #125, .T. ) ;
#167 = DIRECTION ( 'NONE',  ( 0.0000000000000000000, 0.0000000000000000000, -1.000000000000000000 ) ) ;
#168 = CARTESIAN_POINT ( 'NONE',  ( -2.000000000000000000, 0.0000000000000000000, 12.50000000000000000 ) ) ;
#169 = APPROVAL ( #35, 'UNSPECIFIED' ) ;
#170 = COORDINATED_UNIVERSAL_TIME_OFFSET ( 5, 0, .BEHIND. ) ;
#171 = APPROVAL ( #98, 'UNSPECIFIED' ) ;
#172 = PERSON_AND_ORGANIZATION_ROLE ( 'design_owner' ) ;
#173 = LINE ( 'NONE', #175, #77 ) ;
#174 = ORGANIZATION ( 'UNSPECIFIED', 'UNSPECIFIED', '' ) ;
#175 = CARTESIAN_POINT ( 'NONE',  ( 2.000000000000000000, 1.530808498934191521E-15, -12.50000000000000000 ) ) ;
ENDSEC;
END-ISO-10303-21;
