ISO-10303-21;
HEADER;
FILE_DESCRIPTION (( 'STEP AP203' ),
    '1' );
FILE_NAME ('ISP Flat Parts_16819.step',
    '2021-01-07T14:52:18',
    ( '' ),
    ( '' ),
    'SwSTEP 2.0',
    'SolidWorks 2018',
    '' );
FILE_SCHEMA (( 'CONFIG_CONTROL_DESIGN' ));
ENDSEC;

DATA;
#1 = CC_DESIGN_DATE_AND_TIME_ASSIGNMENT ( #89, #120, ( #73 ) ) ;
#2 = PERSON ( 'UNSPECIFIED', 'UNSPECIFIED', 'UNSPECIFIED', ('UNSPECIFIED'), ('UNSPECIFIED'), ('UNSPECIFIED') ) ;
#3 = CIRCLE ( 'NONE', #153, 12.69999999999999929 ) ;
#4 = CC_DESIGN_PERSON_AND_ORGANIZATION_ASSIGNMENT ( #160, #156, ( #130 ) ) ;
#5 = CALENDAR_DATE ( 2021, 7, 1 ) ;
#6 = ORIENTED_EDGE ( 'NONE', *, *, #77, .F. ) ;
#7 = APPLICATION_PROTOCOL_DEFINITION ( 'international standard', 'config_control_design', 1994, #116 ) ;
#8 = SECURITY_CLASSIFICATION_LEVEL ( 'unclassified' ) ;
#9 = ADVANCED_BREP_SHAPE_REPRESENTATION ( 'ISP Flat Parts_16819', ( #88, #122 ), #92 ) ;
#10 = CARTESIAN_POINT ( 'NONE',  ( -12.69999999999999929, 0.0000000000000000000, 3.000000000000000000 ) ) ;
#11 = PERSON_AND_ORGANIZATION ( #2, #129 ) ;
#12 = DIRECTION ( 'NONE',  ( -0.0000000000000000000, -0.0000000000000000000, -1.000000000000000000 ) ) ;
#13 = AXIS2_PLACEMENT_3D ( 'NONE', #110, #137, #27 ) ;
#14 = APPROVAL_PERSON_ORGANIZATION ( #164, #162, #25 ) ;
#15 = DATE_AND_TIME ( #76, #37 ) ;
#16 = AXIS2_PLACEMENT_3D ( 'NONE', #136, #165, #57 ) ;
#17 = DIRECTION ( 'NONE',  ( -0.0000000000000000000, -0.0000000000000000000, -1.000000000000000000 ) ) ;
#18 = EDGE_CURVE ( 'NONE', #123, #65, #131, .T. ) ;
#19 = CALENDAR_DATE ( 2021, 7, 1 ) ;
#20 = LOCAL_TIME ( 9, 52, 18.00000000000000000, #52 ) ;
#21 = DIRECTION ( 'NONE',  ( 0.0000000000000000000, 0.0000000000000000000, 1.000000000000000000 ) ) ;
#22 = AXIS2_PLACEMENT_3D ( 'NONE', #144, #46, #124 ) ;
#23 = ORIENTED_EDGE ( 'NONE', *, *, #18, .T. ) ;
#24 = PERSON_AND_ORGANIZATION_ROLE ( 'creator' ) ;
#25 = APPROVAL_ROLE ( '' ) ;
#26 = EDGE_CURVE ( 'NONE', #65, #123, #3, .T. ) ;
#27 = DIRECTION ( 'NONE',  ( 1.000000000000000000, 0.0000000000000000000, 0.0000000000000000000 ) ) ;
#28 = ORIENTED_EDGE ( 'NONE', *, *, #83, .T. ) ;
#29 = ORIENTED_EDGE ( 'NONE', *, *, #115, .F. ) ;
#30 = COORDINATED_UNIVERSAL_TIME_OFFSET ( 5, 0, .BEHIND. ) ;
#31 = FACE_OUTER_BOUND ( 'NONE', #39, .T. ) ;
#32 = EDGE_LOOP ( 'NONE', ( #170, #35, #58, #141 ) ) ;
#33 = SHAPE_DEFINITION_REPRESENTATION ( #171, #9 ) ;
#34 = PERSON_AND_ORGANIZATION ( #2, #129 ) ;
#35 = ORIENTED_EDGE ( 'NONE', *, *, #77, .T. ) ;
#36 = CC_DESIGN_PERSON_AND_ORGANIZATION_ASSIGNMENT ( #149, #101, ( #148 ) ) ;
#37 = LOCAL_TIME ( 9, 52, 18.00000000000000000, #64 ) ;
#38 = DIRECTION ( 'NONE',  ( 1.000000000000000000, 0.0000000000000000000, 0.0000000000000000000 ) ) ;
#39 = EDGE_LOOP ( 'NONE', ( #6, #96, #133, #28 ) ) ;
#40 = CARTESIAN_POINT ( 'NONE',  ( 12.69999999999999929, 1.555301434917138433E-15, 3.000000000000000000 ) ) ;
#41 = DATE_AND_TIME ( #5, #70 ) ;
#42 = VECTOR ( 'NONE', #17, 1000.000000000000000 ) ;
#43 = CC_DESIGN_APPROVAL ( #162, ( #130 ) ) ;
#44 = DIRECTION ( 'NONE',  ( 0.0000000000000000000, 0.0000000000000000000, 1.000000000000000000 ) ) ;
#45 = DIRECTION ( 'NONE',  ( -1.000000000000000000, 0.0000000000000000000, 0.0000000000000000000 ) ) ;
#46 = DIRECTION ( 'NONE',  ( -0.0000000000000000000, -0.0000000000000000000, -1.000000000000000000 ) ) ;
#47 = APPLICATION_CONTEXT ( 'configuration controlled 3d designs of mechanical parts and assemblies' ) ;
#48 = LINE ( 'NONE', #40, #42 ) ;
#49 = APPROVAL_PERSON_ORGANIZATION ( #166, #56, #93 ) ;
#50 = CC_DESIGN_SECURITY_CLASSIFICATION ( #130, ( #125 ) ) ;
#51 = CALENDAR_DATE ( 2021, 7, 1 ) ;
#52 = COORDINATED_UNIVERSAL_TIME_OFFSET ( 5, 0, .BEHIND. ) ;
#53 = CARTESIAN_POINT ( 'NONE',  ( 0.0000000000000000000, 0.0000000000000000000, 0.0000000000000000000 ) ) ;
#54 = CARTESIAN_POINT ( 'NONE',  ( 12.69999999999999929, 1.555301434917138433E-15, 0.0000000000000000000 ) ) ;
#55 = DIRECTION ( 'NONE',  ( 1.000000000000000000, 0.0000000000000000000, 0.0000000000000000000 ) ) ;
#56 = APPROVAL ( #91, 'UNSPECIFIED' ) ;
#57 = DIRECTION ( 'NONE',  ( 1.000000000000000000, 0.0000000000000000000, -0.0000000000000000000 ) ) ;
#58 = ORIENTED_EDGE ( 'NONE', *, *, #115, .T. ) ;
#59 =( NAMED_UNIT ( * ) SI_UNIT ( $, .STERADIAN. ) SOLID_ANGLE_UNIT ( ) );
#60 = VERTEX_POINT ( 'NONE', #54 ) ;
#61 = AXIS2_PLACEMENT_3D ( 'NONE', #157, #72, #45 ) ;
#62 = DIRECTION ( 'NONE',  ( 0.0000000000000000000, 0.0000000000000000000, 1.000000000000000000 ) ) ;
#63 = APPROVAL_DATE_TIME ( #15, #162 ) ;
#64 = COORDINATED_UNIVERSAL_TIME_OFFSET ( 5, 0, .BEHIND. ) ;
#65 = VERTEX_POINT ( 'NONE', #154 ) ;
#66 = APPROVAL_ROLE ( '' ) ;
#67 = PERSON_AND_ORGANIZATION_ROLE ( 'creator' ) ;
#68 = APPROVAL_DATE_TIME ( #126, #103 ) ;
#69 = DIRECTION ( 'NONE',  ( 0.0000000000000000000, 0.0000000000000000000, 1.000000000000000000 ) ) ;
#70 = LOCAL_TIME ( 9, 52, 18.00000000000000000, #75 ) ;
#71 = EDGE_LOOP ( 'NONE', ( #138, #29 ) ) ;
#72 = DIRECTION ( 'NONE',  ( -0.0000000000000000000, -0.0000000000000000000, -1.000000000000000000 ) ) ;
#73 = PRODUCT_DEFINITION ( 'UNKNOWN', '', #125, #108 ) ;
#74 = VECTOR ( 'NONE', #12, 1000.000000000000000 ) ;
#75 = COORDINATED_UNIVERSAL_TIME_OFFSET ( 5, 0, .BEHIND. ) ;
#76 = CALENDAR_DATE ( 2021, 7, 1 ) ;
#77 = EDGE_CURVE ( 'NONE', #65, #60, #48, .T. ) ;
#78 = PERSON_AND_ORGANIZATION_ROLE ( 'design_supplier' ) ;
#79 = VERTEX_POINT ( 'NONE', #139 ) ;
#80 = DIRECTION ( 'NONE',  ( 0.0000000000000000000, 0.0000000000000000000, 1.000000000000000000 ) ) ;
#81 = LINE ( 'NONE', #10, #74 ) ;
#82 = DATE_TIME_ROLE ( 'classification_date' ) ;
#83 = EDGE_CURVE ( 'NONE', #79, #60, #86, .T. ) ;
#84 = CARTESIAN_POINT ( 'NONE',  ( -12.69999999999999929, 0.0000000000000000000, 3.000000000000000000 ) ) ;
#85 = LOCAL_TIME ( 9, 52, 18.00000000000000000, #163 ) ;
#86 = CIRCLE ( 'NONE', #169, 12.69999999999999929 ) ;
#87 = DIRECTION ( 'NONE',  ( 1.000000000000000000, 0.0000000000000000000, 0.0000000000000000000 ) ) ;
#88 = MANIFOLD_SOLID_BREP ( 'Boss-Extrude1', #106 ) ;
#89 = DATE_AND_TIME ( #51, #85 ) ;
#90 = CYLINDRICAL_SURFACE ( 'NONE', #22, 12.69999999999999929 ) ;
#91 = APPROVAL_STATUS ( 'not_yet_approved' ) ;
#92 =( GEOMETRIC_REPRESENTATION_CONTEXT ( 3 ) GLOBAL_UNCERTAINTY_ASSIGNED_CONTEXT ( ( #143 ) ) GLOBAL_UNIT_ASSIGNED_CONTEXT ( ( #114, #145, #59 ) ) REPRESENTATION_CONTEXT ( 'NONE', 'WORKASPACE' ) );
#93 = APPROVAL_ROLE ( '' ) ;
#94 = APPROVAL_STATUS ( 'not_yet_approved' ) ;
#95 = FACE_OUTER_BOUND ( 'NONE', #97, .T. ) ;
#96 = ORIENTED_EDGE ( 'NONE', *, *, #18, .F. ) ;
#97 = EDGE_LOOP ( 'NONE', ( #23, #167 ) ) ;
#98 = CARTESIAN_POINT ( 'NONE',  ( 0.0000000000000000000, 0.0000000000000000000, 0.0000000000000000000 ) ) ;
#99 = ADVANCED_FACE ( 'NONE', ( #95 ), #111, .T. ) ;
#100 = AXIS2_PLACEMENT_3D ( 'NONE', #173, #44, #158 ) ;
#101 = PERSON_AND_ORGANIZATION_ROLE ( 'design_owner' ) ;
#102 = CYLINDRICAL_SURFACE ( 'NONE', #61, 12.69999999999999929 ) ;
#103 = APPROVAL ( #135, 'UNSPECIFIED' ) ;
#104 = APPROVAL_DATE_TIME ( #119, #56 ) ;
#105 = EDGE_CURVE ( 'NONE', #123, #79, #81, .T. ) ;
#106 = CLOSED_SHELL ( 'NONE', ( #174, #147, #99, #172 ) ) ;
#107 = CC_DESIGN_APPROVAL ( #56, ( #73 ) ) ;
#108 = DESIGN_CONTEXT ( 'detailed design', #116, 'design' ) ;
#109 = FACE_OUTER_BOUND ( 'NONE', #32, .T. ) ;
#110 = CARTESIAN_POINT ( 'NONE',  ( 0.0000000000000000000, 0.0000000000000000000, 3.000000000000000000 ) ) ;
#111 = PLANE ( 'NONE',  #16 ) ;
#112 = CC_DESIGN_APPROVAL ( #103, ( #125 ) ) ;
#113 = PERSON_AND_ORGANIZATION ( #2, #129 ) ;
#114 =( LENGTH_UNIT ( ) NAMED_UNIT ( * ) SI_UNIT ( .MILLI., .METRE. ) );
#115 = EDGE_CURVE ( 'NONE', #60, #79, #152, .T. ) ;
#116 = APPLICATION_CONTEXT ( 'configuration controlled 3d designs of mechanical parts and assemblies' ) ;
#117 = MECHANICAL_CONTEXT ( 'NONE', #47, 'mechanical' ) ;
#118 = CC_DESIGN_DATE_AND_TIME_ASSIGNMENT ( #41, #82, ( #130 ) ) ;
#119 = DATE_AND_TIME ( #161, #20 ) ;
#120 = DATE_TIME_ROLE ( 'creation_date' ) ;
#121 = CC_DESIGN_PERSON_AND_ORGANIZATION_ASSIGNMENT ( #128, #24, ( #73 ) ) ;
#122 = AXIS2_PLACEMENT_3D ( 'NONE', #159, #62, #87 ) ;
#123 = VERTEX_POINT ( 'NONE', #84 ) ;
#124 = DIRECTION ( 'NONE',  ( -1.000000000000000000, 0.0000000000000000000, 0.0000000000000000000 ) ) ;
#125 = PRODUCT_DEFINITION_FORMATION_WITH_SPECIFIED_SOURCE ( 'ANY', '', #148, .NOT_KNOWN. ) ;
#126 = DATE_AND_TIME ( #19, #140 ) ;
#127 = DIRECTION ( 'NONE',  ( 1.000000000000000000, 0.0000000000000000000, -0.0000000000000000000 ) ) ;
#128 = PERSON_AND_ORGANIZATION ( #2, #129 ) ;
#129 = ORGANIZATION ( 'UNSPECIFIED', 'UNSPECIFIED', '' ) ;
#130 = SECURITY_CLASSIFICATION ( '', '', #8 ) ;
#131 = CIRCLE ( 'NONE', #13, 12.69999999999999929 ) ;
#132 = CC_DESIGN_PERSON_AND_ORGANIZATION_ASSIGNMENT ( #34, #78, ( #125 ) ) ;
#133 = ORIENTED_EDGE ( 'NONE', *, *, #105, .T. ) ;
#134 = PRODUCT_RELATED_PRODUCT_CATEGORY ( 'detail', '', ( #148 ) ) ;
#135 = APPROVAL_STATUS ( 'not_yet_approved' ) ;
#136 = CARTESIAN_POINT ( 'NONE',  ( 0.0000000000000000000, 0.0000000000000000000, 3.000000000000000000 ) ) ;
#137 = DIRECTION ( 'NONE',  ( 0.0000000000000000000, 0.0000000000000000000, 1.000000000000000000 ) ) ;
#138 = ORIENTED_EDGE ( 'NONE', *, *, #83, .F. ) ;
#139 = CARTESIAN_POINT ( 'NONE',  ( -12.69999999999999929, 0.0000000000000000000, 0.0000000000000000000 ) ) ;
#140 = LOCAL_TIME ( 9, 52, 18.00000000000000000, #30 ) ;
#141 = ORIENTED_EDGE ( 'NONE', *, *, #105, .F. ) ;
#142 = PLANE ( 'NONE',  #146 ) ;
#143 = UNCERTAINTY_MEASURE_WITH_UNIT (LENGTH_MEASURE( 1.000000000000000082E-05 ), #114, 'distance_accuracy_value', 'NONE');
#144 = CARTESIAN_POINT ( 'NONE',  ( 0.0000000000000000000, 0.0000000000000000000, 3.000000000000000000 ) ) ;
#145 =( NAMED_UNIT ( * ) PLANE_ANGLE_UNIT ( ) SI_UNIT ( $, .RADIAN. ) );
#146 = AXIS2_PLACEMENT_3D ( 'NONE', #98, #21, #127 ) ;
#147 = ADVANCED_FACE ( 'NONE', ( #31 ), #102, .T. ) ;
#148 = PRODUCT ( 'ISP Flat Parts_16819', 'ISP Flat Parts_16819', '', ( #117 ) ) ;
#149 = PERSON_AND_ORGANIZATION ( #2, #129 ) ;
#150 = FACE_OUTER_BOUND ( 'NONE', #71, .T. ) ;
#151 = APPROVAL_PERSON_ORGANIZATION ( #11, #103, #66 ) ;
#152 = CIRCLE ( 'NONE', #100, 12.69999999999999929 ) ;
#153 = AXIS2_PLACEMENT_3D ( 'NONE', #168, #80, #38 ) ;
#154 = CARTESIAN_POINT ( 'NONE',  ( 12.69999999999999929, 1.555301434917138433E-15, 3.000000000000000000 ) ) ;
#155 = CC_DESIGN_PERSON_AND_ORGANIZATION_ASSIGNMENT ( #113, #67, ( #125 ) ) ;
#156 = PERSON_AND_ORGANIZATION_ROLE ( 'classification_officer' ) ;
#157 = CARTESIAN_POINT ( 'NONE',  ( 0.0000000000000000000, 0.0000000000000000000, 3.000000000000000000 ) ) ;
#158 = DIRECTION ( 'NONE',  ( 1.000000000000000000, 0.0000000000000000000, 0.0000000000000000000 ) ) ;
#159 = CARTESIAN_POINT ( 'NONE',  ( 0.0000000000000000000, 0.0000000000000000000, 0.0000000000000000000 ) ) ;
#160 = PERSON_AND_ORGANIZATION ( #2, #129 ) ;
#161 = CALENDAR_DATE ( 2021, 7, 1 ) ;
#162 = APPROVAL ( #94, 'UNSPECIFIED' ) ;
#163 = COORDINATED_UNIVERSAL_TIME_OFFSET ( 5, 0, .BEHIND. ) ;
#164 = PERSON_AND_ORGANIZATION ( #2, #129 ) ;
#165 = DIRECTION ( 'NONE',  ( 0.0000000000000000000, 0.0000000000000000000, 1.000000000000000000 ) ) ;
#166 = PERSON_AND_ORGANIZATION ( #2, #129 ) ;
#167 = ORIENTED_EDGE ( 'NONE', *, *, #26, .T. ) ;
#168 = CARTESIAN_POINT ( 'NONE',  ( 0.0000000000000000000, 0.0000000000000000000, 3.000000000000000000 ) ) ;
#169 = AXIS2_PLACEMENT_3D ( 'NONE', #53, #69, #55 ) ;
#170 = ORIENTED_EDGE ( 'NONE', *, *, #26, .F. ) ;
#171 = PRODUCT_DEFINITION_SHAPE ( 'NONE', 'NONE',  #73 ) ;
#172 = ADVANCED_FACE ( 'NONE', ( #150 ), #142, .F. ) ;
#173 = CARTESIAN_POINT ( 'NONE',  ( 0.0000000000000000000, 0.0000000000000000000, 0.0000000000000000000 ) ) ;
#174 = ADVANCED_FACE ( 'NONE', ( #109 ), #90, .T. ) ;
#175 = APPLICATION_PROTOCOL_DEFINITION ( 'international standard', 'config_control_design', 1994, #47 ) ;
ENDSEC;
END-ISO-10303-21;
