ISO-10303-21;
HEADER;
FILE_DESCRIPTION (( 'STEP AP203' ),
    '1' );
FILE_NAME ('Web Model 33317MX_33319.step',
    '2019-05-20T15:08:02',
    ( '' ),
    ( '' ),
    'SwSTEP 2.0',
    'SolidWorks 2018',
    '' );
FILE_SCHEMA (( 'CONFIG_CONTROL_DESIGN' ));
ENDSEC;

DATA;
#1 = CARTESIAN_POINT ( 'NONE',  ( -12.69999999999999929, -12.69999999999999929, -12.69999999999999929 ) ) ;
#2 = APPROVAL_ROLE ( '' ) ;
#3 = EDGE_CURVE ( 'NONE', #239, #252, #52, .T. ) ;
#4 = VECTOR ( 'NONE', #129, 1000.000000000000000 ) ;
#5 = ADVANCED_FACE ( 'NONE', ( #283 ), #214, .T. ) ;
#6 = APPROVAL_DATE_TIME ( #15, #306 ) ;
#7 = EDGE_CURVE ( 'NONE', #101, #202, #170, .T. ) ;
#8 = CALENDAR_DATE ( 2019, 20, 5 ) ;
#9 = AXIS2_PLACEMENT_3D ( 'NONE', #287, #209, #139 ) ;
#10 = CARTESIAN_POINT ( 'NONE',  ( 0.0000000000000000000, 0.0000000000000000000, 12.69999999999999929 ) ) ;
#11 = CARTESIAN_POINT ( 'NONE',  ( -12.69999999999999929, -12.69999999999999929, 12.69999999999999929 ) ) ;
#12 = CC_DESIGN_APPROVAL ( #306, ( #213 ) ) ;
#13 = EDGE_CURVE ( 'NONE', #239, #276, #85, .T. ) ;
#14 = VECTOR ( 'NONE', #176, 1000.000000000000000 ) ;
#15 = DATE_AND_TIME ( #8, #73 ) ;
#16 = DIRECTION ( 'NONE',  ( -0.0000000000000000000, 0.0000000000000000000, 1.000000000000000000 ) ) ;
#17 = CARTESIAN_POINT ( 'NONE',  ( -12.69999999999999751, 12.69999999999999751, 12.69999999999999929 ) ) ;
#18 = PERSON_AND_ORGANIZATION_ROLE ( 'creator' ) ;
#19 = CARTESIAN_POINT ( 'NONE',  ( -12.69999999999999751, 12.69999999999999751, -12.69999999999999929 ) ) ;
#20 = PERSON_AND_ORGANIZATION_ROLE ( 'classification_officer' ) ;
#21 = DIRECTION ( 'NONE',  ( -0.0000000000000000000, -0.0000000000000000000, -1.000000000000000000 ) ) ;
#22 = LINE ( 'NONE', #17, #102 ) ;
#23 = CARTESIAN_POINT ( 'NONE',  ( 0.0000000000000000000, 0.0000000000000000000, 12.69999999999999929 ) ) ;
#24 = AXIS2_PLACEMENT_3D ( 'NONE', #45, #16, #40 ) ;
#25 = ORIENTED_EDGE ( 'NONE', *, *, #256, .T. ) ;
#26 = LINE ( 'NONE', #301, #67 ) ;
#27 = CC_DESIGN_PERSON_AND_ORGANIZATION_ASSIGNMENT ( #200, #18, ( #213 ) ) ;
#28 = CARTESIAN_POINT ( 'NONE',  ( -12.69999999999999929, 0.0000000000000000000, 12.69999999999999929 ) ) ;
#29 = LOCAL_TIME ( 11, 8, 2.000000000000000000, #92 ) ;
#30 = EDGE_CURVE ( 'NONE', #202, #80, #78, .T. ) ;
#31 = FACE_OUTER_BOUND ( 'NONE', #288, .T. ) ;
#32 = PLANE ( 'NONE',  #9 ) ;
#33 = EDGE_LOOP ( 'NONE', ( #75, #217, #90 ) ) ;
#34 = PLANE ( 'NONE',  #64 ) ;
#35 = PERSON_AND_ORGANIZATION ( #76, #189 ) ;
#36 = PERSON_AND_ORGANIZATION ( #76, #189 ) ;
#37 = VERTEX_POINT ( 'NONE', #58 ) ;
#38 = DIRECTION ( 'NONE',  ( -0.0000000000000000000, 0.0000000000000000000, 1.000000000000000000 ) ) ;
#39 = PERSON_AND_ORGANIZATION ( #76, #189 ) ;
#40 = DIRECTION ( 'NONE',  ( 1.000000000000000000, 0.0000000000000000000, 0.0000000000000000000 ) ) ;
#41 = FACE_OUTER_BOUND ( 'NONE', #95, .T. ) ;
#42 = CARTESIAN_POINT ( 'NONE',  ( -12.69999999999999751, 12.69999999999999751, -12.69999999999999929 ) ) ;
#43 = ORIENTED_EDGE ( 'NONE', *, *, #292, .T. ) ;
#44 = APPROVAL ( #223, 'UNSPECIFIED' ) ;
#45 = CARTESIAN_POINT ( 'NONE',  ( 0.0000000000000000000, 0.0000000000000000000, -12.69999999999999929 ) ) ;
#46 = COORDINATED_UNIVERSAL_TIME_OFFSET ( 5, 0, .BEHIND. ) ;
#47 = CARTESIAN_POINT ( 'NONE',  ( -12.69999999999999751, 12.69999999999999751, 12.69999999999999929 ) ) ;
#48 = EDGE_CURVE ( 'NONE', #245, #239, #22, .T. ) ;
#49 = VECTOR ( 'NONE', #273, 1000.000000000000114 ) ;
#50 = ORIENTED_EDGE ( 'NONE', *, *, #303, .F. ) ;
#51 = PRODUCT ( 'Web Model 33317MX_33319', 'Web Model 33317MX_33319', '', ( #266 ) ) ;
#52 = LINE ( 'NONE', #165, #159 ) ;
#53 = FACE_OUTER_BOUND ( 'NONE', #107, .T. ) ;
#54 = SHAPE_DEFINITION_REPRESENTATION ( #180, #137 ) ;
#55 = DIRECTION ( 'NONE',  ( -1.000000000000000000, 0.0000000000000000000, 0.0000000000000000000 ) ) ;
#56 = VECTOR ( 'NONE', #131, 1000.000000000000114 ) ;
#57 = CC_DESIGN_PERSON_AND_ORGANIZATION_ASSIGNMENT ( #39, #20, ( #235 ) ) ;
#58 = CARTESIAN_POINT ( 'NONE',  ( 12.69999999999999751, -12.69999999999999751, 12.69999999999999929 ) ) ;
#59 = ORIENTED_EDGE ( 'NONE', *, *, #260, .T. ) ;
#60 = ORIENTED_EDGE ( 'NONE', *, *, #303, .T. ) ;
#61 = VECTOR ( 'NONE', #21, 1000.000000000000000 ) ;
#62 = DIRECTION ( 'NONE',  ( 1.000000000000000000, 0.0000000000000000000, 0.0000000000000000000 ) ) ;
#63 = DIRECTION ( 'NONE',  ( -0.0000000000000000000, 0.0000000000000000000, 1.000000000000000000 ) ) ;
#64 = AXIS2_PLACEMENT_3D ( 'NONE', #28, #55, #66 ) ;
#65 = ORIENTED_EDGE ( 'NONE', *, *, #155, .F. ) ;
#66 = DIRECTION ( 'NONE',  ( 0.0000000000000000000, 0.0000000000000000000, 1.000000000000000000 ) ) ;
#67 = VECTOR ( 'NONE', #218, 1000.000000000000000 ) ;
#68 = APPROVAL_STATUS ( 'not_yet_approved' ) ;
#69 = CARTESIAN_POINT ( 'NONE',  ( 12.69999999999999929, 12.69999999999999929, 12.69999999999999929 ) ) ;
#70 = CARTESIAN_POINT ( 'NONE',  ( 12.69999999999999929, 12.69999999999999929, -12.69999999999999929 ) ) ;
#71 = PRODUCT_RELATED_PRODUCT_CATEGORY ( 'detail', '', ( #51 ) ) ;
#72 = DIRECTION ( 'NONE',  ( 0.0000000000000000000, 0.0000000000000000000, 1.000000000000000000 ) ) ;
#73 = LOCAL_TIME ( 11, 8, 2.000000000000000000, #278 ) ;
#74 = CARTESIAN_POINT ( 'NONE',  ( -12.69999999999999929, 0.0000000000000000000, -12.69999999999999929 ) ) ;
#75 = ORIENTED_EDGE ( 'NONE', *, *, #3, .F. ) ;
#76 = PERSON ( 'UNSPECIFIED', 'UNSPECIFIED', 'UNSPECIFIED', ('UNSPECIFIED'), ('UNSPECIFIED'), ('UNSPECIFIED') ) ;
#77 = CARTESIAN_POINT ( 'NONE',  ( 0.0000000000000000000, 0.0000000000000000000, 12.69999999999999929 ) ) ;
#78 = LINE ( 'NONE', #145, #272 ) ;
#79 = ADVANCED_FACE ( 'NONE', ( #156 ), #186, .T. ) ;
#80 = VERTEX_POINT ( 'NONE', #108 ) ;
#81 = AXIS2_PLACEMENT_3D ( 'NONE', #10, #63, #243 ) ;
#82 = CARTESIAN_POINT ( 'NONE',  ( 0.0000000000000000000, 0.0000000000000000000, 12.69999999999999929 ) ) ;
#83 = LINE ( 'NONE', #23, #207 ) ;
#84 = ORIENTED_EDGE ( 'NONE', *, *, #292, .F. ) ;
#85 = LINE ( 'NONE', #87, #212 ) ;
#86 = VECTOR ( 'NONE', #179, 1000.000000000000000 ) ;
#87 = CARTESIAN_POINT ( 'NONE',  ( -0.0000000000000000000, 12.69999999999999929, -12.69999999999999929 ) ) ;
#88 = PERSON_AND_ORGANIZATION ( #76, #189 ) ;
#89 = ORIENTED_EDGE ( 'NONE', *, *, #7, .F. ) ;
#90 = ORIENTED_EDGE ( 'NONE', *, *, #260, .F. ) ;
#91 = PLANE ( 'NONE',  #96 ) ;
#92 = COORDINATED_UNIVERSAL_TIME_OFFSET ( 5, 0, .BEHIND. ) ;
#93 = DIRECTION ( 'NONE',  ( -1.000000000000000000, 0.0000000000000000000, 0.0000000000000000000 ) ) ;
#94 = APPROVAL_ROLE ( '' ) ;
#95 = EDGE_LOOP ( 'NONE', ( #59, #65, #116, #210 ) ) ;
#96 = AXIS2_PLACEMENT_3D ( 'NONE', #269, #93, #72 ) ;
#97 = CARTESIAN_POINT ( 'NONE',  ( 12.69999999999999751, -12.69999999999999751, 12.69999999999999929 ) ) ;
#98 = CARTESIAN_POINT ( 'NONE',  ( 0.0000000000000000000, 0.0000000000000000000, -12.69999999999999929 ) ) ;
#99 = PERSON_AND_ORGANIZATION ( #76, #189 ) ;
#100 = FACE_OUTER_BOUND ( 'NONE', #130, .T. ) ;
#101 = VERTEX_POINT ( 'NONE', #205 ) ;
#102 = VECTOR ( 'NONE', #309, 1000.000000000000000 ) ;
#103 = ADVANCED_FACE ( 'NONE', ( #142 ), #32, .T. ) ;
#104 = DESIGN_CONTEXT ( 'detailed design', #293, 'design' ) ;
#105 = ORIENTED_EDGE ( 'NONE', *, *, #256, .F. ) ;
#106 = EDGE_CURVE ( 'NONE', #245, #279, #147, .T. ) ;
#107 = EDGE_LOOP ( 'NONE', ( #304, #89, #268, #220 ) ) ;
#108 = CARTESIAN_POINT ( 'NONE',  ( 12.69999999999999751, -12.69999999999999751, -12.69999999999999929 ) ) ;
#109 = LINE ( 'NONE', #275, #317 ) ;
#110 =( GEOMETRIC_REPRESENTATION_CONTEXT ( 3 ) GLOBAL_UNCERTAINTY_ASSIGNED_CONTEXT ( ( #291 ) ) GLOBAL_UNIT_ASSIGNED_CONTEXT ( ( #277, #127, #191 ) ) REPRESENTATION_CONTEXT ( 'NONE', 'WORKASPACE' ) );
#111 = APPROVAL_PERSON_ORGANIZATION ( #36, #44, #173 ) ;
#112 = LINE ( 'NONE', #69, #61 ) ;
#113 = DIRECTION ( 'NONE',  ( -0.0000000000000000000, -0.0000000000000000000, -1.000000000000000000 ) ) ;
#114 = PERSON_AND_ORGANIZATION_ROLE ( 'design_owner' ) ;
#115 = DIRECTION ( 'NONE',  ( 0.0000000000000000000, 0.0000000000000000000, 1.000000000000000000 ) ) ;
#116 = ORIENTED_EDGE ( 'NONE', *, *, #319, .F. ) ;
#117 = CALENDAR_DATE ( 2019, 20, 5 ) ;
#118 = ORIENTED_EDGE ( 'NONE', *, *, #13, .F. ) ;
#119 = PLANE ( 'NONE',  #215 ) ;
#120 = LINE ( 'NONE', #281, #86 ) ;
#121 = PLANE ( 'NONE',  #24 ) ;
#122 = MANIFOLD_SOLID_BREP ( 'Boss-Extrude2', #316 ) ;
#123 = DIRECTION ( 'NONE',  ( 0.0000000000000000000, -0.0000000000000000000, 1.000000000000000000 ) ) ;
#124 = DATE_AND_TIME ( #259, #135 ) ;
#125 = DATE_TIME_ROLE ( 'classification_date' ) ;
#126 = ORIENTED_EDGE ( 'NONE', *, *, #30, .T. ) ;
#127 =( NAMED_UNIT ( * ) PLANE_ANGLE_UNIT ( ) SI_UNIT ( $, .RADIAN. ) );
#128 = VERTEX_POINT ( 'NONE', #161 ) ;
#129 = DIRECTION ( 'NONE',  ( 0.0000000000000000000, 1.000000000000000000, -0.0000000000000000000 ) ) ;
#130 = EDGE_LOOP ( 'NONE', ( #178, #237, #199, #174 ) ) ;
#131 = DIRECTION ( 'NONE',  ( 0.7071067811865474617, -0.7071067811865474617, 0.0000000000000000000 ) ) ;
#132 = LINE ( 'NONE', #192, #257 ) ;
#133 = ORIENTED_EDGE ( 'NONE', *, *, #319, .T. ) ;
#134 = ADVANCED_FACE ( 'NONE', ( #53 ), #34, .T. ) ;
#135 = LOCAL_TIME ( 11, 8, 2.000000000000000000, #219 ) ;
#136 = ORIENTED_EDGE ( 'NONE', *, *, #143, .F. ) ;
#137 = ADVANCED_BREP_SHAPE_REPRESENTATION ( 'Web Model 33317MX_33319', ( #122, #229, #221 ), #110 ) ;
#138 = EDGE_LOOP ( 'NONE', ( #150, #60, #84 ) ) ;
#139 = DIRECTION ( 'NONE',  ( 0.0000000000000000000, -0.0000000000000000000, 1.000000000000000000 ) ) ;
#140 = FACE_OUTER_BOUND ( 'NONE', #33, .T. ) ;
#141 = EDGE_LOOP ( 'NONE', ( #118, #201, #321, #195 ) ) ;
#142 = FACE_OUTER_BOUND ( 'NONE', #141, .T. ) ;
#143 = EDGE_CURVE ( 'NONE', #182, #163, #132, .T. ) ;
#144 = ORIENTED_EDGE ( 'NONE', *, *, #249, .F. ) ;
#145 = CARTESIAN_POINT ( 'NONE',  ( 0.0000000000000000000, -12.69999999999999929, -12.69999999999999929 ) ) ;
#146 = AXIS2_PLACEMENT_3D ( 'NONE', #222, #271, #123 ) ;
#147 = LINE ( 'NONE', #208, #311 ) ;
#148 = LINE ( 'NONE', #77, #56 ) ;
#149 = DIRECTION ( 'NONE',  ( 0.7071067811865475727, 0.7071067811865475727, -0.0000000000000000000 ) ) ;
#150 = ORIENTED_EDGE ( 'NONE', *, *, #253, .F. ) ;
#151 = VECTOR ( 'NONE', #113, 1000.000000000000000 ) ;
#152 = DIRECTION ( 'NONE',  ( 0.0000000000000000000, 1.000000000000000000, -0.0000000000000000000 ) ) ;
#153 = DIRECTION ( 'NONE',  ( -0.0000000000000000000, -0.0000000000000000000, -1.000000000000000000 ) ) ;
#154 = APPROVAL_STATUS ( 'not_yet_approved' ) ;
#155 = EDGE_CURVE ( 'NONE', #279, #276, #112, .T. ) ;
#156 = FACE_OUTER_BOUND ( 'NONE', #206, .T. ) ;
#157 = CLOSED_SHELL ( 'NONE', ( #160, #286, #103, #79, #164 ) ) ;
#158 = AXIS2_PLACEMENT_3D ( 'NONE', #98, #38, #216 ) ;
#159 = VECTOR ( 'NONE', #167, 1000.000000000000114 ) ;
#160 = ADVANCED_FACE ( 'NONE', ( #100 ), #119, .F. ) ;
#161 = CARTESIAN_POINT ( 'NONE',  ( 12.69999999999999751, -12.69999999999999751, 12.69999999999999929 ) ) ;
#162 = DIRECTION ( 'NONE',  ( -0.0000000000000000000, 0.0000000000000000000, 1.000000000000000000 ) ) ;
#163 = VERTEX_POINT ( 'NONE', #42 ) ;
#164 = ADVANCED_FACE ( 'NONE', ( #140 ), #121, .F. ) ;
#165 = CARTESIAN_POINT ( 'NONE',  ( -0.0000000000000000000, 0.0000000000000000000, -12.69999999999999929 ) ) ;
#166 = ORIENTED_EDGE ( 'NONE', *, *, #298, .T. ) ;
#167 = DIRECTION ( 'NONE',  ( 0.7071067811865474617, -0.7071067811865474617, 0.0000000000000000000 ) ) ;
#168 = CALENDAR_DATE ( 2019, 20, 5 ) ;
#169 = DIRECTION ( 'NONE',  ( -0.0000000000000000000, -0.0000000000000000000, -1.000000000000000000 ) ) ;
#170 = LINE ( 'NONE', #11, #151 ) ;
#171 = CARTESIAN_POINT ( 'NONE',  ( -12.69999999999999929, 0.0000000000000000000, 12.69999999999999929 ) ) ;
#172 = CARTESIAN_POINT ( 'NONE',  ( -0.0000000000000000000, 0.0000000000000000000, -12.69999999999999929 ) ) ;
#173 = APPROVAL_ROLE ( '' ) ;
#174 = ORIENTED_EDGE ( 'NONE', *, *, #48, .T. ) ;
#175 = DIRECTION ( 'NONE',  ( 0.0000000000000000000, 1.000000000000000000, -0.0000000000000000000 ) ) ;
#176 = DIRECTION ( 'NONE',  ( 0.0000000000000000000, 1.000000000000000000, -0.0000000000000000000 ) ) ;
#177 = CC_DESIGN_DATE_AND_TIME_ASSIGNMENT ( #124, #270, ( #213 ) ) ;
#178 = ORIENTED_EDGE ( 'NONE', *, *, #3, .T. ) ;
#179 = DIRECTION ( 'NONE',  ( 1.000000000000000000, 0.0000000000000000000, 0.0000000000000000000 ) ) ;
#180 = PRODUCT_DEFINITION_SHAPE ( 'NONE', 'NONE',  #213 ) ;
#181 = LINE ( 'NONE', #97, #187 ) ;
#182 = VERTEX_POINT ( 'NONE', #47 ) ;
#183 = ORIENTED_EDGE ( 'NONE', *, *, #307, .T. ) ;
#184 = LOCAL_TIME ( 11, 8, 2.000000000000000000, #254 ) ;
#185 = DIRECTION ( 'NONE',  ( 1.000000000000000000, 0.0000000000000000000, 0.0000000000000000000 ) ) ;
#186 = PLANE ( 'NONE',  #267 ) ;
#187 = VECTOR ( 'NONE', #153, 1000.000000000000000 ) ;
#188 = APPLICATION_PROTOCOL_DEFINITION ( 'international standard', 'config_control_design', 1994, #293 ) ;
#189 = ORGANIZATION ( 'UNSPECIFIED', 'UNSPECIFIED', '' ) ;
#190 = CC_DESIGN_APPROVAL ( #44, ( #250 ) ) ;
#191 =( NAMED_UNIT ( * ) SI_UNIT ( $, .STERADIAN. ) SOLID_ANGLE_UNIT ( ) );
#192 = CARTESIAN_POINT ( 'NONE',  ( -12.69999999999999751, 12.69999999999999751, 12.69999999999999929 ) ) ;
#193 = LINE ( 'NONE', #172, #49 ) ;
#194 = CARTESIAN_POINT ( 'NONE',  ( -12.69999999999999751, 12.69999999999999751, 12.69999999999999929 ) ) ;
#195 = ORIENTED_EDGE ( 'NONE', *, *, #155, .T. ) ;
#196 = PLANE ( 'NONE',  #146 ) ;
#197 = CARTESIAN_POINT ( 'NONE',  ( 0.0000000000000000000, 0.0000000000000000000, 12.69999999999999929 ) ) ;
#198 = PERSON_AND_ORGANIZATION_ROLE ( 'creator' ) ;
#199 = ORIENTED_EDGE ( 'NONE', *, *, #307, .F. ) ;
#200 = PERSON_AND_ORGANIZATION ( #76, #189 ) ;
#201 = ORIENTED_EDGE ( 'NONE', *, *, #48, .F. ) ;
#202 = VERTEX_POINT ( 'NONE', #1 ) ;
#203 = EDGE_LOOP ( 'NONE', ( #166, #282, #315 ) ) ;
#204 = CC_DESIGN_PERSON_AND_ORGANIZATION_ASSIGNMENT ( #236, #198, ( #250 ) ) ;
#205 = CARTESIAN_POINT ( 'NONE',  ( -12.69999999999999929, -12.69999999999999929, 12.69999999999999929 ) ) ;
#206 = EDGE_LOOP ( 'NONE', ( #183, #133, #310 ) ) ;
#207 = VECTOR ( 'NONE', #305, 1000.000000000000114 ) ;
#208 = CARTESIAN_POINT ( 'NONE',  ( 0.0000000000000000000, 12.69999999999999929, 12.69999999999999929 ) ) ;
#209 = DIRECTION ( 'NONE',  ( 0.0000000000000000000, 1.000000000000000000, 0.0000000000000000000 ) ) ;
#210 = ORIENTED_EDGE ( 'NONE', *, *, #232, .T. ) ;
#211 = DATE_AND_TIME ( #230, #231 ) ;
#212 = VECTOR ( 'NONE', #312, 1000.000000000000000 ) ;
#213 = PRODUCT_DEFINITION ( 'UNKNOWN', '', #250, #104 ) ;
#214 = PLANE ( 'NONE',  #81 ) ;
#215 = AXIS2_PLACEMENT_3D ( 'NONE', #225, #149, #318 ) ;
#216 = DIRECTION ( 'NONE',  ( 1.000000000000000000, 0.0000000000000000000, 0.0000000000000000000 ) ) ;
#217 = ORIENTED_EDGE ( 'NONE', *, *, #13, .T. ) ;
#218 = DIRECTION ( 'NONE',  ( -0.0000000000000000000, -0.0000000000000000000, -1.000000000000000000 ) ) ;
#219 = COORDINATED_UNIVERSAL_TIME_OFFSET ( 5, 0, .BEHIND. ) ;
#220 = ORIENTED_EDGE ( 'NONE', *, *, #143, .T. ) ;
#221 = AXIS2_PLACEMENT_3D ( 'NONE', #228, #115, #265 ) ;
#222 = CARTESIAN_POINT ( 'NONE',  ( 0.0000000000000000000, -12.69999999999999929, 12.69999999999999929 ) ) ;
#223 = APPROVAL_STATUS ( 'not_yet_approved' ) ;
#224 = LINE ( 'NONE', #171, #308 ) ;
#225 = CARTESIAN_POINT ( 'NONE',  ( 0.0000000000000000000, 0.0000000000000000000, 12.69999999999999929 ) ) ;
#226 = DIRECTION ( 'NONE',  ( 0.7071067811865475727, 0.7071067811865475727, -0.0000000000000000000 ) ) ;
#227 = CC_DESIGN_PERSON_AND_ORGANIZATION_ASSIGNMENT ( #99, #274, ( #250 ) ) ;
#228 = CARTESIAN_POINT ( 'NONE',  ( 0.0000000000000000000, 0.0000000000000000000, 0.0000000000000000000 ) ) ;
#229 = MANIFOLD_SOLID_BREP ( 'Boss-Extrude3', #157 ) ;
#230 = CALENDAR_DATE ( 2019, 20, 5 ) ;
#231 = LOCAL_TIME ( 11, 8, 2.000000000000000000, #46 ) ;
#232 = EDGE_CURVE ( 'NONE', #37, #252, #181, .T. ) ;
#233 = ADVANCED_FACE ( 'NONE', ( #280 ), #251, .T. ) ;
#234 = EDGE_LOOP ( 'NONE', ( #144, #136, #43, #25 ) ) ;
#235 = SECURITY_CLASSIFICATION ( '', '', #302 ) ;
#236 = PERSON_AND_ORGANIZATION ( #76, #189 ) ;
#237 = ORIENTED_EDGE ( 'NONE', *, *, #232, .F. ) ;
#238 = DIRECTION ( 'NONE',  ( 1.000000000000000000, 0.0000000000000000000, 0.0000000000000000000 ) ) ;
#239 = VERTEX_POINT ( 'NONE', #19 ) ;
#240 = LINE ( 'NONE', #74, #4 ) ;
#241 = CC_DESIGN_PERSON_AND_ORGANIZATION_ASSIGNMENT ( #88, #114, ( #51 ) ) ;
#242 = DATE_AND_TIME ( #168, #29 ) ;
#243 = DIRECTION ( 'NONE',  ( 1.000000000000000000, 0.0000000000000000000, 0.0000000000000000000 ) ) ;
#244 = LINE ( 'NONE', #255, #14 ) ;
#245 = VERTEX_POINT ( 'NONE', #194 ) ;
#246 = DATE_AND_TIME ( #117, #184 ) ;
#247 = ORIENTED_EDGE ( 'NONE', *, *, #7, .T. ) ;
#248 = DIRECTION ( 'NONE',  ( -0.7071067811865474617, 0.7071067811865474617, 0.0000000000000000000 ) ) ;
#249 = EDGE_CURVE ( 'NONE', #163, #80, #193, .T. ) ;
#250 = PRODUCT_DEFINITION_FORMATION_WITH_SPECIFIED_SOURCE ( 'ANY', '', #51, .NOT_KNOWN. ) ;
#251 = PLANE ( 'NONE',  #290 ) ;
#252 = VERTEX_POINT ( 'NONE', #320 ) ;
#253 = EDGE_CURVE ( 'NONE', #101, #182, #224, .T. ) ;
#254 = COORDINATED_UNIVERSAL_TIME_OFFSET ( 5, 0, .BEHIND. ) ;
#255 = CARTESIAN_POINT ( 'NONE',  ( 12.69999999999999929, 0.0000000000000000000, 12.69999999999999929 ) ) ;
#256 = EDGE_CURVE ( 'NONE', #128, #80, #26, .T. ) ;
#257 = VECTOR ( 'NONE', #169, 1000.000000000000000 ) ;
#258 = ADVANCED_FACE ( 'NONE', ( #31 ), #196, .F. ) ;
#259 = CALENDAR_DATE ( 2019, 20, 5 ) ;
#260 = EDGE_CURVE ( 'NONE', #252, #276, #109, .T. ) ;
#261 = APPROVAL_DATE_TIME ( #242, #285 ) ;
#262 = APPROVAL_DATE_TIME ( #211, #44 ) ;
#263 = APPLICATION_CONTEXT ( 'configuration controlled 3d designs of mechanical parts and assemblies' ) ;
#264 = CC_DESIGN_DATE_AND_TIME_ASSIGNMENT ( #246, #125, ( #235 ) ) ;
#265 = DIRECTION ( 'NONE',  ( 1.000000000000000000, 0.0000000000000000000, 0.0000000000000000000 ) ) ;
#266 = MECHANICAL_CONTEXT ( 'NONE', #263, 'mechanical' ) ;
#267 = AXIS2_PLACEMENT_3D ( 'NONE', #82, #162, #185 ) ;
#268 = ORIENTED_EDGE ( 'NONE', *, *, #253, .T. ) ;
#269 = CARTESIAN_POINT ( 'NONE',  ( 12.69999999999999929, 0.0000000000000000000, 12.69999999999999929 ) ) ;
#270 = DATE_TIME_ROLE ( 'creation_date' ) ;
#271 = DIRECTION ( 'NONE',  ( 0.0000000000000000000, 1.000000000000000000, 0.0000000000000000000 ) ) ;
#272 = VECTOR ( 'NONE', #62, 1000.000000000000000 ) ;
#273 = DIRECTION ( 'NONE',  ( 0.7071067811865474617, -0.7071067811865474617, 0.0000000000000000000 ) ) ;
#274 = PERSON_AND_ORGANIZATION_ROLE ( 'design_supplier' ) ;
#275 = CARTESIAN_POINT ( 'NONE',  ( 12.69999999999999929, 0.0000000000000000000, -12.69999999999999929 ) ) ;
#276 = VERTEX_POINT ( 'NONE', #70 ) ;
#277 =( LENGTH_UNIT ( ) NAMED_UNIT ( * ) SI_UNIT ( .MILLI., .METRE. ) );
#278 = COORDINATED_UNIVERSAL_TIME_OFFSET ( 5, 0, .BEHIND. ) ;
#279 = VERTEX_POINT ( 'NONE', #297 ) ;
#280 = FACE_OUTER_BOUND ( 'NONE', #234, .T. ) ;
#281 = CARTESIAN_POINT ( 'NONE',  ( 0.0000000000000000000, -12.69999999999999929, 12.69999999999999929 ) ) ;
#282 = ORIENTED_EDGE ( 'NONE', *, *, #249, .T. ) ;
#283 = FACE_OUTER_BOUND ( 'NONE', #138, .T. ) ;
#284 = ADVANCED_FACE ( 'NONE', ( #294 ), #299, .F. ) ;
#285 = APPROVAL ( #154, 'UNSPECIFIED' ) ;
#286 = ADVANCED_FACE ( 'NONE', ( #41 ), #91, .F. ) ;
#287 = CARTESIAN_POINT ( 'NONE',  ( 0.0000000000000000000, 12.69999999999999929, 12.69999999999999929 ) ) ;
#288 = EDGE_LOOP ( 'NONE', ( #126, #105, #50, #247 ) ) ;
#289 = APPROVAL_PERSON_ORGANIZATION ( #313, #306, #94 ) ;
#290 = AXIS2_PLACEMENT_3D ( 'NONE', #197, #226, #248 ) ;
#291 = UNCERTAINTY_MEASURE_WITH_UNIT (LENGTH_MEASURE( 1.000000000000000082E-05 ), #277, 'distance_accuracy_value', 'NONE');
#292 = EDGE_CURVE ( 'NONE', #182, #128, #83, .T. ) ;
#293 = APPLICATION_CONTEXT ( 'configuration controlled 3d designs of mechanical parts and assemblies' ) ;
#294 = FACE_OUTER_BOUND ( 'NONE', #203, .T. ) ;
#295 = APPLICATION_PROTOCOL_DEFINITION ( 'international standard', 'config_control_design', 1994, #263 ) ;
#296 = APPROVAL_PERSON_ORGANIZATION ( #35, #285, #2 ) ;
#297 = CARTESIAN_POINT ( 'NONE',  ( 12.69999999999999929, 12.69999999999999929, 12.69999999999999929 ) ) ;
#298 = EDGE_CURVE ( 'NONE', #202, #163, #240, .T. ) ;
#299 = PLANE ( 'NONE',  #158 ) ;
#300 = CC_DESIGN_APPROVAL ( #285, ( #235 ) ) ;
#301 = CARTESIAN_POINT ( 'NONE',  ( 12.69999999999999751, -12.69999999999999751, 12.69999999999999929 ) ) ;
#302 = SECURITY_CLASSIFICATION_LEVEL ( 'unclassified' ) ;
#303 = EDGE_CURVE ( 'NONE', #101, #128, #120, .T. ) ;
#304 = ORIENTED_EDGE ( 'NONE', *, *, #298, .F. ) ;
#305 = DIRECTION ( 'NONE',  ( 0.7071067811865474617, -0.7071067811865474617, 0.0000000000000000000 ) ) ;
#306 = APPROVAL ( #68, 'UNSPECIFIED' ) ;
#307 = EDGE_CURVE ( 'NONE', #245, #37, #148, .T. ) ;
#308 = VECTOR ( 'NONE', #175, 1000.000000000000000 ) ;
#309 = DIRECTION ( 'NONE',  ( -0.0000000000000000000, -0.0000000000000000000, -1.000000000000000000 ) ) ;
#310 = ORIENTED_EDGE ( 'NONE', *, *, #106, .F. ) ;
#311 = VECTOR ( 'NONE', #238, 1000.000000000000000 ) ;
#312 = DIRECTION ( 'NONE',  ( 1.000000000000000000, 0.0000000000000000000, 0.0000000000000000000 ) ) ;
#313 = PERSON_AND_ORGANIZATION ( #76, #189 ) ;
#314 = CC_DESIGN_SECURITY_CLASSIFICATION ( #235, ( #250 ) ) ;
#315 = ORIENTED_EDGE ( 'NONE', *, *, #30, .F. ) ;
#316 = CLOSED_SHELL ( 'NONE', ( #134, #258, #233, #5, #284 ) ) ;
#317 = VECTOR ( 'NONE', #152, 1000.000000000000000 ) ;
#318 = DIRECTION ( 'NONE',  ( -0.7071067811865474617, 0.7071067811865474617, 0.0000000000000000000 ) ) ;
#319 = EDGE_CURVE ( 'NONE', #37, #279, #244, .T. ) ;
#320 = CARTESIAN_POINT ( 'NONE',  ( 12.69999999999999751, -12.69999999999999751, -12.69999999999999929 ) ) ;
#321 = ORIENTED_EDGE ( 'NONE', *, *, #106, .T. ) ;
ENDSEC;
END-ISO-10303-21;
