ISO-10303-21;
HEADER;
FILE_DESCRIPTION (( 'STEP AP203' ),
    '1' );
FILE_NAME ('Web Model 68428.STEP',
    '2017-01-31T20:03:00',
    ( '' ),
    ( '' ),
    'SwSTEP 2.0',
    'SolidWorks 2016',
    '' );
FILE_SCHEMA (( 'CONFIG_CONTROL_DESIGN' ));
ENDSEC;

DATA;
#1 = VERTEX_POINT ( 'NONE', #173 ) ;
#2 = DIRECTION ( 'NONE',  ( -0.0000000000000000000, -0.0000000000000000000, -1.000000000000000000 ) ) ;
#3 = COORDINATED_UNIVERSAL_TIME_OFFSET ( 5, 0, .BEHIND. ) ;
#4 = DIRECTION ( 'NONE',  ( 1.982541115402065100E-016, -1.000000000000000000, 0.0000000000000000000 ) ) ;
#5 = LINE ( 'NONE', #85, #199 ) ;
#6 = CARTESIAN_POINT ( 'NONE',  ( -17.49999999999999600, -17.50000000000000700, 0.0000000000000000000 ) ) ;
#7 = PLANE ( 'NONE',  #81 ) ;
#8 = APPROVAL_ROLE ( '' ) ;
#9 = ADVANCED_FACE ( 'NONE', ( #71 ), #209, .F. ) ;
#10 = CARTESIAN_POINT ( 'NONE',  ( 0.0000000000000000000, 0.0000000000000000000, 0.0000000000000000000 ) ) ;
#11 = ORIENTED_EDGE ( 'NONE', *, *, #72, .T. ) ;
#12 = PERSON_AND_ORGANIZATION ( #182, #47 ) ;
#13 = EDGE_LOOP ( 'NONE', ( #157, #218, #152, #143 ) ) ;
#14 = DESIGN_CONTEXT ( 'detailed design', #162, 'design' ) ;
#15 = LOCAL_TIME ( 15, 3, 0.0000000000000000000, #3 ) ;
#16 = LINE ( 'NONE', #23, #185 ) ;
#17 = ORIENTED_EDGE ( 'NONE', *, *, #125, .F. ) ;
#18 = PRODUCT_RELATED_PRODUCT_CATEGORY ( 'detail', '', ( #112 ) ) ;
#19 = CARTESIAN_POINT ( 'NONE',  ( -17.50000000000000000, 17.49999999999999600, 3.000000000000000000 ) ) ;
#20 = ORIENTED_EDGE ( 'NONE', *, *, #147, .F. ) ;
#21 = CARTESIAN_POINT ( 'NONE',  ( 17.50000000000000400, -17.50000000000000400, 0.0000000000000000000 ) ) ;
#22 = CC_DESIGN_PERSON_AND_ORGANIZATION_ASSIGNMENT ( #99, #131, ( #216 ) ) ;
#23 = CARTESIAN_POINT ( 'NONE',  ( 17.49999999999999600, 17.50000000000000000, 3.000000000000000000 ) ) ;
#24 = DIRECTION ( 'NONE',  ( -0.0000000000000000000, -0.0000000000000000000, -1.000000000000000000 ) ) ;
#25 = PERSON_AND_ORGANIZATION_ROLE ( 'design_owner' ) ;
#26 = APPROVAL_DATE_TIME ( #200, #51 ) ;
#27 = APPLICATION_PROTOCOL_DEFINITION ( 'international standard', 'config_control_design', 1994, #229 ) ;
#28 = ORIENTED_EDGE ( 'NONE', *, *, #61, .T. ) ;
#29 = APPROVAL_PERSON_ORGANIZATION ( #34, #120, #8 ) ;
#30 = APPROVAL_DATE_TIME ( #202, #213 ) ;
#31 = VECTOR ( 'NONE', #210, 1000.000000000000000 ) ;
#32 = CC_DESIGN_PERSON_AND_ORGANIZATION_ASSIGNMENT ( #130, #146, ( #216 ) ) ;
#33 = VECTOR ( 'NONE', #177, 1000.000000000000000 ) ;
#34 = PERSON_AND_ORGANIZATION ( #182, #47 ) ;
#35 = PERSON_AND_ORGANIZATION ( #182, #47 ) ;
#36 = AXIS2_PLACEMENT_3D ( 'NONE', #214, #129, #46 ) ;
#37 = EDGE_CURVE ( 'NONE', #235, #101, #96, .T. ) ;
#38 = CARTESIAN_POINT ( 'NONE',  ( -17.50000000000000000, 17.49999999999999600, 3.000000000000000000 ) ) ;
#39 = ORIENTED_EDGE ( 'NONE', *, *, #220, .T. ) ;
#40 = PLANE ( 'NONE',  #36 ) ;
#41 = APPROVAL_PERSON_ORGANIZATION ( #97, #51, #93 ) ;
#42 = CARTESIAN_POINT ( 'NONE',  ( 17.50000000000000400, -17.50000000000000400, 3.000000000000000000 ) ) ;
#43 = PLANE ( 'NONE',  #222 ) ;
#44 = EDGE_LOOP ( 'NONE', ( #98, #17, #148, #83 ) ) ;
#45 = EDGE_CURVE ( 'NONE', #79, #135, #16, .T. ) ;
#46 = DIRECTION ( 'NONE',  ( -1.000000000000000000, 0.0000000000000000000, -0.0000000000000000000 ) ) ;
#47 = ORGANIZATION ( 'UNSPECIFIED', 'UNSPECIFIED', '' ) ;
#48 = DIRECTION ( 'NONE',  ( 1.000000000000000000, 9.912705577010325500E-017, -0.0000000000000000000 ) ) ;
#49 = PERSON_AND_ORGANIZATION_ROLE ( 'classification_officer' ) ;
#50 = CALENDAR_DATE ( 2017, 31, 1 ) ;
#51 = APPROVAL ( #176, 'UNSPECIFIED' ) ;
#52 = SECURITY_CLASSIFICATION ( '', '', #164 ) ;
#53 = LINE ( 'NONE', #38, #116 ) ;
#54 = PERSON_AND_ORGANIZATION ( #182, #47 ) ;
#55 = APPROVAL_DATE_TIME ( #62, #120 ) ;
#56 = FACE_OUTER_BOUND ( 'NONE', #44, .T. ) ;
#57 = ORIENTED_EDGE ( 'NONE', *, *, #147, .T. ) ;
#58 = DIRECTION ( 'NONE',  ( 0.0000000000000000000, 0.0000000000000000000, -1.000000000000000000 ) ) ;
#59 = PLANE ( 'NONE',  #180 ) ;
#60 = CC_DESIGN_APPROVAL ( #51, ( #216 ) ) ;
#61 = EDGE_CURVE ( 'NONE', #1, #75, #205, .T. ) ;
#62 = DATE_AND_TIME ( #115, #168 ) ;
#63 = ADVANCED_BREP_SHAPE_REPRESENTATION ( 'Web Model 68428', ( #114, #124 ), #134 ) ;
#64 = VECTOR ( 'NONE', #123, 1000.000000000000000 ) ;
#65 = CC_DESIGN_PERSON_AND_ORGANIZATION_ASSIGNMENT ( #137, #49, ( #52 ) ) ;
#66 = DIRECTION ( 'NONE',  ( -1.982541115402065100E-016, 1.000000000000000000, -0.0000000000000000000 ) ) ;
#67 = LOCAL_TIME ( 15, 3, 0.0000000000000000000, #138 ) ;
#68 = APPROVAL_STATUS ( 'not_yet_approved' ) ;
#69 = DIRECTION ( 'NONE',  ( -1.000000000000000000, -1.982541115402065100E-016, 0.0000000000000000000 ) ) ;
#70 =( NAMED_UNIT ( * ) PLANE_ANGLE_UNIT ( ) SI_UNIT ( $, .RADIAN. ) );
#71 = FACE_OUTER_BOUND ( 'NONE', #233, .T. ) ;
#72 = EDGE_CURVE ( 'NONE', #135, #223, #219, .T. ) ;
#73 = CARTESIAN_POINT ( 'NONE',  ( -17.50000000000000000, 17.49999999999999600, 3.000000000000000000 ) ) ;
#74 = ADVANCED_FACE ( 'NONE', ( #206 ), #59, .F. ) ;
#75 = VERTEX_POINT ( 'NONE', #6 ) ;
#76 = AXIS2_PLACEMENT_3D ( 'NONE', #84, #58, #158 ) ;
#77 = CALENDAR_DATE ( 2017, 31, 1 ) ;
#78 = UNCERTAINTY_MEASURE_WITH_UNIT (LENGTH_MEASURE( 1.000000000000000100E-005 ), #175, 'distance_accuracy_value', 'NONE');
#79 = VERTEX_POINT ( 'NONE', #212 ) ;
#80 = CARTESIAN_POINT ( 'NONE',  ( 17.50000000000000400, -17.50000000000000400, 3.000000000000000000 ) ) ;
#81 = AXIS2_PLACEMENT_3D ( 'NONE', #73, #48, #87 ) ;
#82 = COORDINATED_UNIVERSAL_TIME_OFFSET ( 5, 0, .BEHIND. ) ;
#83 = ORIENTED_EDGE ( 'NONE', *, *, #140, .T. ) ;
#84 = CARTESIAN_POINT ( 'NONE',  ( -17.49999999999999600, -17.50000000000000700, 3.000000000000000000 ) ) ;
#85 = CARTESIAN_POINT ( 'NONE',  ( 17.50000000000000400, -17.50000000000000400, 3.000000000000000000 ) ) ;
#86 = DIRECTION ( 'NONE',  ( 1.982541115402065100E-016, -1.000000000000000000, 0.0000000000000000000 ) ) ;
#87 = DIRECTION ( 'NONE',  ( -9.912705577010325500E-017, 1.000000000000000000, 0.0000000000000000000 ) ) ;
#88 = LOCAL_TIME ( 15, 3, 0.0000000000000000000, #144 ) ;
#89 = DIRECTION ( 'NONE',  ( 1.000000000000000000, 0.0000000000000000000, 0.0000000000000000000 ) ) ;
#90 = CALENDAR_DATE ( 2017, 31, 1 ) ;
#91 = CARTESIAN_POINT ( 'NONE',  ( 17.50000000000000400, -17.50000000000000400, 3.000000000000000000 ) ) ;
#92 = PERSON_AND_ORGANIZATION_ROLE ( 'creator' ) ;
#93 = APPROVAL_ROLE ( '' ) ;
#94 = VECTOR ( 'NONE', #194, 1000.000000000000000 ) ;
#95 = CC_DESIGN_PERSON_AND_ORGANIZATION_ASSIGNMENT ( #54, #92, ( #179 ) ) ;
#96 = LINE ( 'NONE', #80, #172 ) ;
#97 = PERSON_AND_ORGANIZATION ( #182, #47 ) ;
#98 = ORIENTED_EDGE ( 'NONE', *, *, #189, .T. ) ;
#99 = PERSON_AND_ORGANIZATION ( #182, #47 ) ;
#100 = DIRECTION ( 'NONE',  ( -1.000000000000000000, -1.982541115402065100E-016, 0.0000000000000000000 ) ) ;
#101 = VERTEX_POINT ( 'NONE', #21 ) ;
#102 = PLANE ( 'NONE',  #169 ) ;
#103 = DATE_AND_TIME ( #50, #15 ) ;
#104 = ORIENTED_EDGE ( 'NONE', *, *, #140, .F. ) ;
#105 = CC_DESIGN_DATE_AND_TIME_ASSIGNMENT ( #121, #160, ( #52 ) ) ;
#106 = FACE_OUTER_BOUND ( 'NONE', #204, .T. ) ;
#107 = DIRECTION ( 'NONE',  ( 1.000000000000000000, 1.982541115402065100E-016, 0.0000000000000000000 ) ) ;
#108 = ADVANCED_FACE ( 'NONE', ( #217 ), #102, .F. ) ;
#109 = APPROVAL_STATUS ( 'not_yet_approved' ) ;
#110 = VECTOR ( 'NONE', #66, 1000.000000000000000 ) ;
#111 =( NAMED_UNIT ( * ) SI_UNIT ( $, .STERADIAN. ) SOLID_ANGLE_UNIT ( ) );
#112 = PRODUCT ( 'Web Model 68428', 'Web Model 68428', '', ( #198 ) ) ;
#113 = ORIENTED_EDGE ( 'NONE', *, *, #125, .T. ) ;
#114 = MANIFOLD_SOLID_BREP ( 'Extrude1', #149 ) ;
#115 = CALENDAR_DATE ( 2017, 31, 1 ) ;
#116 = VECTOR ( 'NONE', #24, 1000.000000000000000 ) ;
#117 = ORIENTED_EDGE ( 'NONE', *, *, #161, .T. ) ;
#118 = EDGE_CURVE ( 'NONE', #235, #79, #166, .T. ) ;
#119 = LINE ( 'NONE', #208, #64 ) ;
#120 = APPROVAL ( #68, 'UNSPECIFIED' ) ;
#121 = DATE_AND_TIME ( #77, #88 ) ;
#122 = ORIENTED_EDGE ( 'NONE', *, *, #37, .T. ) ;
#123 = DIRECTION ( 'NONE',  ( -0.0000000000000000000, -0.0000000000000000000, -1.000000000000000000 ) ) ;
#124 = AXIS2_PLACEMENT_3D ( 'NONE', #10, #215, #89 ) ;
#125 = EDGE_CURVE ( 'NONE', #135, #1, #53, .T. ) ;
#126 = CARTESIAN_POINT ( 'NONE',  ( 17.49999999999999600, 17.50000000000000000, 3.000000000000000000 ) ) ;
#127 = VECTOR ( 'NONE', #226, 1000.000000000000000 ) ;
#128 = DIRECTION ( 'NONE',  ( -1.000000000000000000, -9.912705577010325500E-017, 0.0000000000000000000 ) ) ;
#129 = DIRECTION ( 'NONE',  ( 0.0000000000000000000, 0.0000000000000000000, -1.000000000000000000 ) ) ;
#130 = PERSON_AND_ORGANIZATION ( #182, #47 ) ;
#131 = PERSON_AND_ORGANIZATION_ROLE ( 'creator' ) ;
#132 = APPROVAL_ROLE ( '' ) ;
#133 = VECTOR ( 'NONE', #191, 1000.000000000000000 ) ;
#134 =( GEOMETRIC_REPRESENTATION_CONTEXT ( 3 ) GLOBAL_UNCERTAINTY_ASSIGNED_CONTEXT ( ( #78 ) ) GLOBAL_UNIT_ASSIGNED_CONTEXT ( ( #175, #70, #111 ) ) REPRESENTATION_CONTEXT ( 'NONE', 'WORKASPACE' ) );
#135 = VERTEX_POINT ( 'NONE', #19 ) ;
#136 = FACE_OUTER_BOUND ( 'NONE', #13, .T. ) ;
#137 = PERSON_AND_ORGANIZATION ( #182, #47 ) ;
#138 = COORDINATED_UNIVERSAL_TIME_OFFSET ( 5, 0, .BEHIND. ) ;
#139 = DIRECTION ( 'NONE',  ( 1.000000000000000000, 9.912705577010325500E-017, -0.0000000000000000000 ) ) ;
#140 = EDGE_CURVE ( 'NONE', #79, #186, #167, .T. ) ;
#141 = CC_DESIGN_APPROVAL ( #120, ( #52 ) ) ;
#142 = CARTESIAN_POINT ( 'NONE',  ( 17.49999999999999600, 17.50000000000000000, 3.000000000000000000 ) ) ;
#143 = ORIENTED_EDGE ( 'NONE', *, *, #165, .F. ) ;
#144 = COORDINATED_UNIVERSAL_TIME_OFFSET ( 5, 0, .BEHIND. ) ;
#145 = ADVANCED_FACE ( 'NONE', ( #56 ), #43, .F. ) ;
#146 = PERSON_AND_ORGANIZATION_ROLE ( 'design_supplier' ) ;
#147 = EDGE_CURVE ( 'NONE', #223, #75, #119, .T. ) ;
#148 = ORIENTED_EDGE ( 'NONE', *, *, #45, .F. ) ;
#149 = CLOSED_SHELL ( 'NONE', ( #195, #74, #108, #145, #9, #178 ) ) ;
#150 = EDGE_LOOP ( 'NONE', ( #39, #104, #183, #122 ) ) ;
#151 = LOCAL_TIME ( 15, 3, 0.0000000000000000000, #237 ) ;
#152 = ORIENTED_EDGE ( 'NONE', *, *, #220, .F. ) ;
#153 = CC_DESIGN_SECURITY_CLASSIFICATION ( #52, ( #216 ) ) ;
#154 = CC_DESIGN_PERSON_AND_ORGANIZATION_ASSIGNMENT ( #12, #25, ( #112 ) ) ;
#155 = ORIENTED_EDGE ( 'NONE', *, *, #72, .F. ) ;
#156 = CARTESIAN_POINT ( 'NONE',  ( -17.50000000000000000, 17.49999999999999600, 0.0000000000000000000 ) ) ;
#157 = ORIENTED_EDGE ( 'NONE', *, *, #61, .F. ) ;
#158 = DIRECTION ( 'NONE',  ( -1.000000000000000000, 0.0000000000000000000, -0.0000000000000000000 ) ) ;
#159 = CARTESIAN_POINT ( 'NONE',  ( 17.50000000000000400, -17.50000000000000400, 0.0000000000000000000 ) ) ;
#160 = DATE_TIME_ROLE ( 'classification_date' ) ;
#161 = EDGE_CURVE ( 'NONE', #223, #235, #5, .T. ) ;
#162 = APPLICATION_CONTEXT ( 'configuration controlled 3d designs of mechanical parts and assemblies' ) ;
#163 = LINE ( 'NONE', #159, #94 ) ;
#164 = SECURITY_CLASSIFICATION_LEVEL ( 'unclassified' ) ;
#165 = EDGE_CURVE ( 'NONE', #75, #101, #163, .T. ) ;
#166 = LINE ( 'NONE', #190, #110 ) ;
#167 = LINE ( 'NONE', #142, #127 ) ;
#168 = LOCAL_TIME ( 15, 3, 0.0000000000000000000, #82 ) ;
#169 = AXIS2_PLACEMENT_3D ( 'NONE', #224, #171, #4 ) ;
#170 = DIRECTION ( 'NONE',  ( -9.912705577010325500E-017, 1.000000000000000000, 0.0000000000000000000 ) ) ;
#171 = DIRECTION ( 'NONE',  ( -1.000000000000000000, -1.982541115402065100E-016, 0.0000000000000000000 ) ) ;
#172 = VECTOR ( 'NONE', #2, 1000.000000000000000 ) ;
#173 = CARTESIAN_POINT ( 'NONE',  ( -17.50000000000000000, 17.49999999999999600, 0.0000000000000000000 ) ) ;
#174 = CARTESIAN_POINT ( 'NONE',  ( -17.50000000000000000, 17.49999999999999600, 3.000000000000000000 ) ) ;
#175 =( LENGTH_UNIT ( ) NAMED_UNIT ( * ) SI_UNIT ( .MILLI., .METRE. ) );
#176 = APPROVAL_STATUS ( 'not_yet_approved' ) ;
#177 = DIRECTION ( 'NONE',  ( -1.982541115402065100E-016, 1.000000000000000000, -0.0000000000000000000 ) ) ;
#178 = ADVANCED_FACE ( 'NONE', ( #136 ), #40, .T. ) ;
#179 = PRODUCT_DEFINITION ( 'UNKNOWN', '', #216, #14 ) ;
#180 = AXIS2_PLACEMENT_3D ( 'NONE', #42, #170, #128 ) ;
#181 = APPLICATION_PROTOCOL_DEFINITION ( 'international standard', 'config_control_design', 1994, #162 ) ;
#182 = PERSON ( 'UNSPECIFIED', 'UNSPECIFIED', 'UNSPECIFIED', ('UNSPECIFIED'), ('UNSPECIFIED'), ('UNSPECIFIED') ) ;
#183 = ORIENTED_EDGE ( 'NONE', *, *, #118, .F. ) ;
#184 = LINE ( 'NONE', #232, #227 ) ;
#185 = VECTOR ( 'NONE', #100, 1000.000000000000000 ) ;
#186 = VERTEX_POINT ( 'NONE', #196 ) ;
#187 = ORIENTED_EDGE ( 'NONE', *, *, #118, .T. ) ;
#188 = CC_DESIGN_DATE_AND_TIME_ASSIGNMENT ( #103, #231, ( #179 ) ) ;
#189 = EDGE_CURVE ( 'NONE', #186, #1, #184, .T. ) ;
#190 = CARTESIAN_POINT ( 'NONE',  ( 17.49999999999999600, 17.50000000000000000, 3.000000000000000000 ) ) ;
#191 = DIRECTION ( 'NONE',  ( 9.912705577010325500E-017, -1.000000000000000000, 0.0000000000000000000 ) ) ;
#192 = EDGE_LOOP ( 'NONE', ( #197, #211, #236, #57 ) ) ;
#193 = CALENDAR_DATE ( 2017, 31, 1 ) ;
#194 = DIRECTION ( 'NONE',  ( 1.000000000000000000, 9.912705577010325500E-017, -0.0000000000000000000 ) ) ;
#195 = ADVANCED_FACE ( 'NONE', ( #106 ), #7, .F. ) ;
#196 = CARTESIAN_POINT ( 'NONE',  ( 17.49999999999999600, 17.50000000000000000, 0.0000000000000000000 ) ) ;
#197 = ORIENTED_EDGE ( 'NONE', *, *, #165, .T. ) ;
#198 = MECHANICAL_CONTEXT ( 'NONE', #229, 'mechanical' ) ;
#199 = VECTOR ( 'NONE', #139, 1000.000000000000000 ) ;
#200 = DATE_AND_TIME ( #193, #151 ) ;
#201 = ORIENTED_EDGE ( 'NONE', *, *, #45, .T. ) ;
#202 = DATE_AND_TIME ( #90, #67 ) ;
#203 = CC_DESIGN_APPROVAL ( #213, ( #179 ) ) ;
#204 = EDGE_LOOP ( 'NONE', ( #28, #20, #155, #113 ) ) ;
#205 = LINE ( 'NONE', #156, #31 ) ;
#206 = FACE_OUTER_BOUND ( 'NONE', #192, .T. ) ;
#207 = PRODUCT_DEFINITION_SHAPE ( 'NONE', 'NONE',  #179 ) ;
#208 = CARTESIAN_POINT ( 'NONE',  ( -17.49999999999999600, -17.50000000000000700, 3.000000000000000000 ) ) ;
#209 = PLANE ( 'NONE',  #76 ) ;
#210 = DIRECTION ( 'NONE',  ( 9.912705577010325500E-017, -1.000000000000000000, 0.0000000000000000000 ) ) ;
#211 = ORIENTED_EDGE ( 'NONE', *, *, #37, .F. ) ;
#212 = CARTESIAN_POINT ( 'NONE',  ( 17.49999999999999600, 17.50000000000000000, 3.000000000000000000 ) ) ;
#213 = APPROVAL ( #109, 'UNSPECIFIED' ) ;
#214 = CARTESIAN_POINT ( 'NONE',  ( -17.49999999999999600, -17.50000000000000700, 0.0000000000000000000 ) ) ;
#215 = DIRECTION ( 'NONE',  ( 0.0000000000000000000, 0.0000000000000000000, 1.000000000000000000 ) ) ;
#216 = PRODUCT_DEFINITION_FORMATION_WITH_SPECIFIED_SOURCE ( 'ANY', '', #112, .NOT_KNOWN. ) ;
#217 = FACE_OUTER_BOUND ( 'NONE', #150, .T. ) ;
#218 = ORIENTED_EDGE ( 'NONE', *, *, #189, .F. ) ;
#219 = LINE ( 'NONE', #174, #133 ) ;
#220 = EDGE_CURVE ( 'NONE', #101, #186, #221, .T. ) ;
#221 = LINE ( 'NONE', #234, #33 ) ;
#222 = AXIS2_PLACEMENT_3D ( 'NONE', #126, #86, #107 ) ;
#223 = VERTEX_POINT ( 'NONE', #228 ) ;
#224 = CARTESIAN_POINT ( 'NONE',  ( 17.49999999999999600, 17.50000000000000000, 3.000000000000000000 ) ) ;
#225 = SHAPE_DEFINITION_REPRESENTATION ( #207, #63 ) ;
#226 = DIRECTION ( 'NONE',  ( -0.0000000000000000000, -0.0000000000000000000, -1.000000000000000000 ) ) ;
#227 = VECTOR ( 'NONE', #69, 1000.000000000000000 ) ;
#228 = CARTESIAN_POINT ( 'NONE',  ( -17.49999999999999600, -17.50000000000000700, 3.000000000000000000 ) ) ;
#229 = APPLICATION_CONTEXT ( 'configuration controlled 3d designs of mechanical parts and assemblies' ) ;
#230 = APPROVAL_PERSON_ORGANIZATION ( #35, #213, #132 ) ;
#231 = DATE_TIME_ROLE ( 'creation_date' ) ;
#232 = CARTESIAN_POINT ( 'NONE',  ( 17.49999999999999600, 17.50000000000000000, 0.0000000000000000000 ) ) ;
#233 = EDGE_LOOP ( 'NONE', ( #11, #117, #187, #201 ) ) ;
#234 = CARTESIAN_POINT ( 'NONE',  ( 17.49999999999999600, 17.50000000000000000, 0.0000000000000000000 ) ) ;
#235 = VERTEX_POINT ( 'NONE', #91 ) ;
#236 = ORIENTED_EDGE ( 'NONE', *, *, #161, .F. ) ;
#237 = COORDINATED_UNIVERSAL_TIME_OFFSET ( 5, 0, .BEHIND. ) ;
ENDSEC;
END-ISO-10303-21;
