ISO-10303-21;
HEADER;
FILE_DESCRIPTION (( 'STEP AP203' ),
    '1' );
FILE_NAME ('Web Model 62606_15797.step',
    '2020-11-03T21:56:42',
    ( '' ),
    ( '' ),
    'SwSTEP 2.0',
    'SolidWorks 2018',
    '' );
FILE_SCHEMA (( 'CONFIG_CONTROL_DESIGN' ));
ENDSEC;

DATA;
#1 = CC_DESIGN_SECURITY_CLASSIFICATION ( #61, ( #148 ) ) ;
#2 = PLANE ( 'NONE',  #137 ) ;
#3 =( NAMED_UNIT ( * ) SI_UNIT ( $, .STERADIAN. ) SOLID_ANGLE_UNIT ( ) );
#4 = CC_DESIGN_PERSON_AND_ORGANIZATION_ASSIGNMENT ( #83, #154, ( #148 ) ) ;
#5 = VERTEX_POINT ( 'NONE', #139 ) ;
#6 = DIRECTION ( 'NONE',  ( 0.0000000000000000000, 0.0000000000000000000, 1.000000000000000000 ) ) ;
#7 = LOCAL_TIME ( 16, 56, 42.00000000000000000, #36 ) ;
#8 = CALENDAR_DATE ( 2020, 3, 11 ) ;
#9 = ORGANIZATION ( 'UNSPECIFIED', 'UNSPECIFIED', '' ) ;
#10 = PERSON_AND_ORGANIZATION ( #156, #9 ) ;
#11 = CC_DESIGN_PERSON_AND_ORGANIZATION_ASSIGNMENT ( #60, #35, ( #148 ) ) ;
#12 = APPROVAL_DATE_TIME ( #86, #59 ) ;
#13 = FACE_OUTER_BOUND ( 'NONE', #33, .T. ) ;
#14 = CARTESIAN_POINT ( 'NONE',  ( -37.50000000000000711, 0.0000000000000000000, 4.000000000000000000 ) ) ;
#15 = PLANE ( 'NONE',  #158 ) ;
#16 = APPLICATION_CONTEXT ( 'configuration controlled 3d designs of mechanical parts and assemblies' ) ;
#17 = APPROVAL_STATUS ( 'not_yet_approved' ) ;
#18 = PERSON_AND_ORGANIZATION ( #156, #9 ) ;
#19 = CYLINDRICAL_SURFACE ( 'NONE', #161, 37.50000000000000711 ) ;
#20 = SECURITY_CLASSIFICATION_LEVEL ( 'unclassified' ) ;
#21 = APPROVAL_ROLE ( '' ) ;
#22 = PERSON_AND_ORGANIZATION ( #156, #9 ) ;
#23 = EDGE_CURVE ( 'NONE', #91, #26, #128, .T. ) ;
#24 = FACE_OUTER_BOUND ( 'NONE', #120, .T. ) ;
#25 = EDGE_CURVE ( 'NONE', #26, #91, #133, .T. ) ;
#26 = VERTEX_POINT ( 'NONE', #127 ) ;
#27 = AXIS2_PLACEMENT_3D ( 'NONE', #149, #6, #103 ) ;
#28 = CALENDAR_DATE ( 2020, 3, 11 ) ;
#29 = CARTESIAN_POINT ( 'NONE',  ( 0.0000000000000000000, 0.0000000000000000000, 4.000000000000000000 ) ) ;
#30 = CARTESIAN_POINT ( 'NONE',  ( 0.0000000000000000000, 0.0000000000000000000, 0.0000000000000000000 ) ) ;
#31 = CARTESIAN_POINT ( 'NONE',  ( 0.0000000000000000000, 0.0000000000000000000, 4.000000000000000000 ) ) ;
#32 = EDGE_CURVE ( 'NONE', #70, #5, #147, .T. ) ;
#33 = EDGE_LOOP ( 'NONE', ( #171, #111, #117, #145 ) ) ;
#34 = ORIENTED_EDGE ( 'NONE', *, *, #32, .F. ) ;
#35 = PERSON_AND_ORGANIZATION_ROLE ( 'design_supplier' ) ;
#36 = COORDINATED_UNIVERSAL_TIME_OFFSET ( 5, 0, .BEHIND. ) ;
#37 = CC_DESIGN_PERSON_AND_ORGANIZATION_ASSIGNMENT ( #10, #108, ( #61 ) ) ;
#38 = LOCAL_TIME ( 16, 56, 42.00000000000000000, #152 ) ;
#39 =( GEOMETRIC_REPRESENTATION_CONTEXT ( 3 ) GLOBAL_UNCERTAINTY_ASSIGNED_CONTEXT ( ( #65 ) ) GLOBAL_UNIT_ASSIGNED_CONTEXT ( ( #138, #74, #3 ) ) REPRESENTATION_CONTEXT ( 'NONE', 'WORKASPACE' ) );
#40 = APPROVAL_DATE_TIME ( #79, #71 ) ;
#41 = CALENDAR_DATE ( 2020, 3, 11 ) ;
#42 = DIRECTION ( 'NONE',  ( 1.000000000000000000, 0.0000000000000000000, -0.0000000000000000000 ) ) ;
#43 = CARTESIAN_POINT ( 'NONE',  ( 0.0000000000000000000, 0.0000000000000000000, 4.000000000000000000 ) ) ;
#44 = LOCAL_TIME ( 16, 56, 42.00000000000000000, #136 ) ;
#45 = ADVANCED_BREP_SHAPE_REPRESENTATION ( 'Web Model 62606_15797', ( #55, #27 ), #39 ) ;
#46 = DIRECTION ( 'NONE',  ( 1.000000000000000000, 0.0000000000000000000, -0.0000000000000000000 ) ) ;
#47 = CARTESIAN_POINT ( 'NONE',  ( 0.0000000000000000000, 0.0000000000000000000, 4.000000000000000000 ) ) ;
#48 = DATE_TIME_ROLE ( 'classification_date' ) ;
#49 = ADVANCED_FACE ( 'NONE', ( #170 ), #19, .T. ) ;
#50 = CC_DESIGN_PERSON_AND_ORGANIZATION_ASSIGNMENT ( #22, #77, ( #110 ) ) ;
#51 = ORIENTED_EDGE ( 'NONE', *, *, #66, .F. ) ;
#52 = VECTOR ( 'NONE', #101, 1000.000000000000000 ) ;
#53 = CC_DESIGN_PERSON_AND_ORGANIZATION_ASSIGNMENT ( #105, #72, ( #135 ) ) ;
#54 = ORIENTED_EDGE ( 'NONE', *, *, #172, .T. ) ;
#55 = MANIFOLD_SOLID_BREP ( 'Extrude1', #123 ) ;
#56 = DIRECTION ( 'NONE',  ( 1.000000000000000000, 0.0000000000000000000, 0.0000000000000000000 ) ) ;
#57 = APPROVAL_DATE_TIME ( #62, #73 ) ;
#58 = CARTESIAN_POINT ( 'NONE',  ( 37.50000000000000711, 4.592425496802575156E-15, 4.000000000000000000 ) ) ;
#59 = APPROVAL ( #17, 'UNSPECIFIED' ) ;
#60 = PERSON_AND_ORGANIZATION ( #156, #9 ) ;
#61 = SECURITY_CLASSIFICATION ( '', '', #20 ) ;
#62 = DATE_AND_TIME ( #41, #100 ) ;
#63 = ADVANCED_FACE ( 'NONE', ( #13 ), #130, .T. ) ;
#64 = APPROVAL_PERSON_ORGANIZATION ( #141, #73, #21 ) ;
#65 = UNCERTAINTY_MEASURE_WITH_UNIT (LENGTH_MEASURE( 1.000000000000000082E-05 ), #138, 'distance_accuracy_value', 'NONE');
#66 = EDGE_CURVE ( 'NONE', #5, #26, #84, .T. ) ;
#67 = VECTOR ( 'NONE', #151, 1000.000000000000000 ) ;
#68 = APPLICATION_CONTEXT ( 'configuration controlled 3d designs of mechanical parts and assemblies' ) ;
#69 = CALENDAR_DATE ( 2020, 3, 11 ) ;
#70 = VERTEX_POINT ( 'NONE', #163 ) ;
#71 = APPROVAL ( #90, 'UNSPECIFIED' ) ;
#72 = PERSON_AND_ORGANIZATION_ROLE ( 'design_owner' ) ;
#73 = APPROVAL ( #131, 'UNSPECIFIED' ) ;
#74 =( NAMED_UNIT ( * ) PLANE_ANGLE_UNIT ( ) SI_UNIT ( $, .RADIAN. ) );
#75 = DIRECTION ( 'NONE',  ( -1.000000000000000000, 0.0000000000000000000, 0.0000000000000000000 ) ) ;
#76 = COORDINATED_UNIVERSAL_TIME_OFFSET ( 5, 0, .BEHIND. ) ;
#77 = PERSON_AND_ORGANIZATION_ROLE ( 'creator' ) ;
#78 = AXIS2_PLACEMENT_3D ( 'NONE', #115, #85, #129 ) ;
#79 = DATE_AND_TIME ( #8, #38 ) ;
#80 = COORDINATED_UNIVERSAL_TIME_OFFSET ( 5, 0, .BEHIND. ) ;
#81 = PRODUCT_RELATED_PRODUCT_CATEGORY ( 'detail', '', ( #135 ) ) ;
#82 = CC_DESIGN_DATE_AND_TIME_ASSIGNMENT ( #166, #106, ( #110 ) ) ;
#83 = PERSON_AND_ORGANIZATION ( #156, #9 ) ;
#84 = LINE ( 'NONE', #14, #52 ) ;
#85 = DIRECTION ( 'NONE',  ( 0.0000000000000000000, 0.0000000000000000000, 1.000000000000000000 ) ) ;
#86 = DATE_AND_TIME ( #98, #134 ) ;
#87 = CC_DESIGN_DATE_AND_TIME_ASSIGNMENT ( #97, #48, ( #61 ) ) ;
#88 = CARTESIAN_POINT ( 'NONE',  ( 37.50000000000000711, 4.592425496802575156E-15, 0.0000000000000000000 ) ) ;
#89 = MECHANICAL_CONTEXT ( 'NONE', #68, 'mechanical' ) ;
#90 = APPROVAL_STATUS ( 'not_yet_approved' ) ;
#91 = VERTEX_POINT ( 'NONE', #88 ) ;
#92 = AXIS2_PLACEMENT_3D ( 'NONE', #30, #126, #56 ) ;
#93 = CIRCLE ( 'NONE', #169, 37.50000000000000711 ) ;
#94 = CC_DESIGN_APPROVAL ( #59, ( #148 ) ) ;
#95 = ADVANCED_FACE ( 'NONE', ( #157 ), #2, .T. ) ;
#96 = ORIENTED_EDGE ( 'NONE', *, *, #25, .F. ) ;
#97 = DATE_AND_TIME ( #69, #44 ) ;
#98 = CALENDAR_DATE ( 2020, 3, 11 ) ;
#99 = DIRECTION ( 'NONE',  ( 0.0000000000000000000, 0.0000000000000000000, 1.000000000000000000 ) ) ;
#100 = LOCAL_TIME ( 16, 56, 42.00000000000000000, #80 ) ;
#101 = DIRECTION ( 'NONE',  ( -0.0000000000000000000, -0.0000000000000000000, -1.000000000000000000 ) ) ;
#102 = DIRECTION ( 'NONE',  ( 0.0000000000000000000, 0.0000000000000000000, 1.000000000000000000 ) ) ;
#103 = DIRECTION ( 'NONE',  ( 1.000000000000000000, 0.0000000000000000000, 0.0000000000000000000 ) ) ;
#104 = APPROVAL_PERSON_ORGANIZATION ( #18, #71, #168 ) ;
#105 = PERSON_AND_ORGANIZATION ( #156, #9 ) ;
#106 = DATE_TIME_ROLE ( 'creation_date' ) ;
#107 = EDGE_LOOP ( 'NONE', ( #34, #54, #124, #51 ) ) ;
#108 = PERSON_AND_ORGANIZATION_ROLE ( 'classification_officer' ) ;
#109 = ADVANCED_FACE ( 'NONE', ( #24 ), #15, .F. ) ;
#110 = PRODUCT_DEFINITION ( 'UNKNOWN', '', #148, #144 ) ;
#111 = ORIENTED_EDGE ( 'NONE', *, *, #113, .F. ) ;
#112 = APPROVAL_PERSON_ORGANIZATION ( #146, #59, #142 ) ;
#113 = EDGE_CURVE ( 'NONE', #5, #70, #93, .T. ) ;
#114 = CARTESIAN_POINT ( 'NONE',  ( 0.0000000000000000000, 0.0000000000000000000, 4.000000000000000000 ) ) ;
#115 = CARTESIAN_POINT ( 'NONE',  ( 0.0000000000000000000, 0.0000000000000000000, 0.0000000000000000000 ) ) ;
#116 = DIRECTION ( 'NONE',  ( 0.0000000000000000000, 0.0000000000000000000, 1.000000000000000000 ) ) ;
#117 = ORIENTED_EDGE ( 'NONE', *, *, #66, .T. ) ;
#118 = APPLICATION_PROTOCOL_DEFINITION ( 'international standard', 'config_control_design', 1994, #16 ) ;
#119 = CC_DESIGN_APPROVAL ( #71, ( #61 ) ) ;
#120 = EDGE_LOOP ( 'NONE', ( #96, #143 ) ) ;
#121 = EDGE_LOOP ( 'NONE', ( #155, #173 ) ) ;
#122 = AXIS2_PLACEMENT_3D ( 'NONE', #43, #159, #160 ) ;
#123 = CLOSED_SHELL ( 'NONE', ( #49, #63, #95, #109 ) ) ;
#124 = ORIENTED_EDGE ( 'NONE', *, *, #23, .T. ) ;
#125 = CC_DESIGN_APPROVAL ( #73, ( #110 ) ) ;
#126 = DIRECTION ( 'NONE',  ( 0.0000000000000000000, 0.0000000000000000000, 1.000000000000000000 ) ) ;
#127 = CARTESIAN_POINT ( 'NONE',  ( -37.50000000000000711, 0.0000000000000000000, 0.0000000000000000000 ) ) ;
#128 = CIRCLE ( 'NONE', #92, 37.50000000000000711 ) ;
#129 = DIRECTION ( 'NONE',  ( 1.000000000000000000, 0.0000000000000000000, 0.0000000000000000000 ) ) ;
#130 = CYLINDRICAL_SURFACE ( 'NONE', #132, 37.50000000000000711 ) ;
#131 = APPROVAL_STATUS ( 'not_yet_approved' ) ;
#132 = AXIS2_PLACEMENT_3D ( 'NONE', #47, #162, #75 ) ;
#133 = CIRCLE ( 'NONE', #78, 37.50000000000000711 ) ;
#134 = LOCAL_TIME ( 16, 56, 42.00000000000000000, #76 ) ;
#135 = PRODUCT ( 'Web Model 62606_15797', 'Web Model 62606_15797', '', ( #89 ) ) ;
#136 = COORDINATED_UNIVERSAL_TIME_OFFSET ( 5, 0, .BEHIND. ) ;
#137 = AXIS2_PLACEMENT_3D ( 'NONE', #31, #116, #42 ) ;
#138 =( LENGTH_UNIT ( ) NAMED_UNIT ( * ) SI_UNIT ( .MILLI., .METRE. ) );
#139 = CARTESIAN_POINT ( 'NONE',  ( -37.50000000000000711, 0.0000000000000000000, 4.000000000000000000 ) ) ;
#140 = DIRECTION ( 'NONE',  ( 1.000000000000000000, 0.0000000000000000000, 0.0000000000000000000 ) ) ;
#141 = PERSON_AND_ORGANIZATION ( #156, #9 ) ;
#142 = APPROVAL_ROLE ( '' ) ;
#143 = ORIENTED_EDGE ( 'NONE', *, *, #23, .F. ) ;
#144 = DESIGN_CONTEXT ( 'detailed design', #16, 'design' ) ;
#145 = ORIENTED_EDGE ( 'NONE', *, *, #25, .T. ) ;
#146 = PERSON_AND_ORGANIZATION ( #156, #9 ) ;
#147 = CIRCLE ( 'NONE', #122, 37.50000000000000711 ) ;
#148 = PRODUCT_DEFINITION_FORMATION_WITH_SPECIFIED_SOURCE ( 'ANY', '', #135, .NOT_KNOWN. ) ;
#149 = CARTESIAN_POINT ( 'NONE',  ( 0.0000000000000000000, 0.0000000000000000000, 0.0000000000000000000 ) ) ;
#150 = DIRECTION ( 'NONE',  ( -1.000000000000000000, 0.0000000000000000000, 0.0000000000000000000 ) ) ;
#151 = DIRECTION ( 'NONE',  ( -0.0000000000000000000, -0.0000000000000000000, -1.000000000000000000 ) ) ;
#152 = COORDINATED_UNIVERSAL_TIME_OFFSET ( 5, 0, .BEHIND. ) ;
#153 = LINE ( 'NONE', #58, #67 ) ;
#154 = PERSON_AND_ORGANIZATION_ROLE ( 'creator' ) ;
#155 = ORIENTED_EDGE ( 'NONE', *, *, #113, .T. ) ;
#156 = PERSON ( 'UNSPECIFIED', 'UNSPECIFIED', 'UNSPECIFIED', ('UNSPECIFIED'), ('UNSPECIFIED'), ('UNSPECIFIED') ) ;
#157 = FACE_OUTER_BOUND ( 'NONE', #121, .T. ) ;
#158 = AXIS2_PLACEMENT_3D ( 'NONE', #174, #99, #46 ) ;
#159 = DIRECTION ( 'NONE',  ( 0.0000000000000000000, 0.0000000000000000000, 1.000000000000000000 ) ) ;
#160 = DIRECTION ( 'NONE',  ( 1.000000000000000000, 0.0000000000000000000, 0.0000000000000000000 ) ) ;
#161 = AXIS2_PLACEMENT_3D ( 'NONE', #29, #175, #150 ) ;
#162 = DIRECTION ( 'NONE',  ( -0.0000000000000000000, -0.0000000000000000000, -1.000000000000000000 ) ) ;
#163 = CARTESIAN_POINT ( 'NONE',  ( 37.50000000000000711, 4.592425496802575156E-15, 4.000000000000000000 ) ) ;
#164 = PRODUCT_DEFINITION_SHAPE ( 'NONE', 'NONE',  #110 ) ;
#165 = APPLICATION_PROTOCOL_DEFINITION ( 'international standard', 'config_control_design', 1994, #68 ) ;
#166 = DATE_AND_TIME ( #28, #7 ) ;
#167 = SHAPE_DEFINITION_REPRESENTATION ( #164, #45 ) ;
#168 = APPROVAL_ROLE ( '' ) ;
#169 = AXIS2_PLACEMENT_3D ( 'NONE', #114, #102, #140 ) ;
#170 = FACE_OUTER_BOUND ( 'NONE', #107, .T. ) ;
#171 = ORIENTED_EDGE ( 'NONE', *, *, #172, .F. ) ;
#172 = EDGE_CURVE ( 'NONE', #70, #91, #153, .T. ) ;
#173 = ORIENTED_EDGE ( 'NONE', *, *, #32, .T. ) ;
#174 = CARTESIAN_POINT ( 'NONE',  ( 0.0000000000000000000, 0.0000000000000000000, 0.0000000000000000000 ) ) ;
#175 = DIRECTION ( 'NONE',  ( -0.0000000000000000000, -0.0000000000000000000, -1.000000000000000000 ) ) ;
ENDSEC;
END-ISO-10303-21;
