ISO-10303-21;
HEADER;
FILE_DESCRIPTION (( 'STEP AP203' ),
    '1' );
FILE_NAME ('4272-E0W.STEP',
    '2015-05-29T14:19:26',
    ( 'admin' ),
    ( '' ),
    'SwSTEP 2.0',
    'SolidWorks 2014',
    '' );
FILE_SCHEMA (( 'CONFIG_CONTROL_DESIGN' ));
ENDSEC;

DATA;
#1 = DIRECTION ( 'NONE',  ( 1.000000000000000000, 0.0000000000000000000, 0.0000000000000000000 ) ) ;
#2 = DIRECTION ( 'NONE',  ( 0.7071067811865463500, 8.659560562354950100E-017, 0.7071067811865487900 ) ) ;
#3 = DIRECTION ( 'NONE',  ( 0.0000000000000000000, 0.0000000000000000000, 1.000000000000000000 ) ) ;
#4 = CC_DESIGN_PERSON_AND_ORGANIZATION_ASSIGNMENT ( #53, #244, ( #84 ) ) ;
#5 = EDGE_CURVE ( 'NONE', #111, #238, #256, .T. ) ;
#6 = CARTESIAN_POINT ( 'NONE',  ( -7.029999510805739100, 0.0000000000000000000, 0.0000000000000000000 ) ) ;
#7 = AXIS2_PLACEMENT_3D ( 'NONE', #165, #107, #175 ) ;
#8 = EDGE_LOOP ( 'NONE', ( #96, #263 ) ) ;
#9 = DIRECTION ( 'NONE',  ( -1.000000000000000000, -0.0000000000000000000, -0.0000000000000000000 ) ) ;
#10 =( LENGTH_UNIT ( ) NAMED_UNIT ( * ) SI_UNIT ( .MILLI., .METRE. ) );
#11 = CARTESIAN_POINT ( 'NONE',  ( -7.029999510805739100, 3.674180033515444900E-019, -0.003000195677703605700 ) ) ;
#12 = APPROVAL_STATUS ( 'not_yet_approved' ) ;
#13 = ORIENTED_EDGE ( 'NONE', *, *, #172, .F. ) ;
#14 = CC_DESIGN_APPROVAL ( #25, ( #84 ) ) ;
#15 = CC_DESIGN_PERSON_AND_ORGANIZATION_ASSIGNMENT ( #49, #129, ( #84 ) ) ;
#16 = DIRECTION ( 'NONE',  ( 1.000000000000000000, 0.0000000000000000000, 0.0000000000000000000 ) ) ;
#17 = EDGE_CURVE ( 'NONE', #133, #238, #262, .T. ) ;
#18 = DIRECTION ( 'NONE',  ( 0.0000000000000000000, 0.0000000000000000000, 1.000000000000000000 ) ) ;
#19 = CALENDAR_DATE ( 2015, 29, 5 ) ;
#20 = LOCAL_TIME ( 10, 19, 26.00000000000000000, #24 ) ;
#21 = ORIENTED_EDGE ( 'NONE', *, *, #70, .T. ) ;
#22 = PERSON ( 'UNSPECIFIED', 'UNSPECIFIED', 'UNSPECIFIED', ('UNSPECIFIED'), ('UNSPECIFIED'), ('UNSPECIFIED') ) ;
#23 = AXIS2_PLACEMENT_3D ( 'NONE', #145, #191, #207 ) ;
#24 = COORDINATED_UNIVERSAL_TIME_OFFSET ( 5, 0, .BEHIND. ) ;
#25 = APPROVAL ( #12, 'UNSPECIFIED' ) ;
#26 = DIRECTION ( 'NONE',  ( 0.0000000000000000000, -1.224646799147353200E-016, 1.000000000000000000 ) ) ;
#27 = APPROVAL_PERSON_ORGANIZATION ( #28, #102, #261 ) ;
#28 = PERSON_AND_ORGANIZATION ( #22, #106 ) ;
#29 = CARTESIAN_POINT ( 'NONE',  ( -2.169999999999999900, 0.0000000000000000000, 0.0000000000000000000 ) ) ;
#30 = PERSON_AND_ORGANIZATION_ROLE ( 'design_owner' ) ;
#31 = CC_DESIGN_PERSON_AND_ORGANIZATION_ASSIGNMENT ( #48, #38, ( #46 ) ) ;
#32 = ORIENTED_EDGE ( 'NONE', *, *, #37, .T. ) ;
#33 = DIRECTION ( 'NONE',  ( 0.0000000000000000000, 0.0000000000000000000, 1.000000000000000000 ) ) ;
#34 = APPLICATION_CONTEXT ( 'configuration controlled 3d designs of mechanical parts and assemblies' ) ;
#35 = DIRECTION ( 'NONE',  ( 1.000000000000000000, 0.0000000000000000000, 0.0000000000000000000 ) ) ;
#36 = ORIENTED_EDGE ( 'NONE', *, *, #276, .F. ) ;
#37 = EDGE_CURVE ( 'NONE', #238, #133, #260, .T. ) ;
#38 = PERSON_AND_ORGANIZATION_ROLE ( 'classification_officer' ) ;
#39 = ORIENTED_EDGE ( 'NONE', *, *, #114, .T. ) ;
#40 = DATE_TIME_ROLE ( 'classification_date' ) ;
#41 = DATE_AND_TIME ( #42, #44 ) ;
#42 = CALENDAR_DATE ( 2015, 29, 5 ) ;
#43 =( NAMED_UNIT ( * ) SI_UNIT ( $, .STERADIAN. ) SOLID_ANGLE_UNIT ( ) );
#44 = LOCAL_TIME ( 10, 19, 26.00000000000000000, #47 ) ;
#45 = ORIENTED_EDGE ( 'NONE', *, *, #51, .F. ) ;
#46 = SECURITY_CLASSIFICATION ( '', '', #223 ) ;
#47 = COORDINATED_UNIVERSAL_TIME_OFFSET ( 5, 0, .BEHIND. ) ;
#48 = PERSON_AND_ORGANIZATION ( #22, #106 ) ;
#49 = PERSON_AND_ORGANIZATION ( #22, #106 ) ;
#50 = CARTESIAN_POINT ( 'NONE',  ( -0.6200000000000016600, 0.0000000000000000000, 0.0000000000000000000 ) ) ;
#51 = EDGE_CURVE ( 'NONE', #137, #185, #229, .T. ) ;
#52 = CARTESIAN_POINT ( 'NONE',  ( 2.169999999999999900, 0.0000000000000000000, 0.0000000000000000000 ) ) ;
#53 = PERSON_AND_ORGANIZATION ( #22, #106 ) ;
#54 = EDGE_LOOP ( 'NONE', ( #80, #163, #87, #275 ) ) ;
#55 = APPROVAL_DATE_TIME ( #57, #25 ) ;
#56 = AXIS2_PLACEMENT_3D ( 'NONE', #243, #16, #245 ) ;
#57 = DATE_AND_TIME ( #58, #59 ) ;
#58 = CALENDAR_DATE ( 2015, 29, 5 ) ;
#59 = LOCAL_TIME ( 10, 19, 26.00000000000000000, #63 ) ;
#60 = DIRECTION ( 'NONE',  ( 0.0000000000000000000, 0.0000000000000000000, 1.000000000000000000 ) ) ;
#61 = CARTESIAN_POINT ( 'NONE',  ( -7.029999510805739100, 0.0000000000000000000, 0.0000000000000000000 ) ) ;
#62 = PLANE ( 'NONE',  #56 ) ;
#63 = COORDINATED_UNIVERSAL_TIME_OFFSET ( 5, 0, .BEHIND. ) ;
#64 = APPROVAL_PERSON_ORGANIZATION ( #66, #25, #157 ) ;
#65 = ORIENTED_EDGE ( 'NONE', *, *, #276, .T. ) ;
#66 = PERSON_AND_ORGANIZATION ( #22, #106 ) ;
#67 = ORIENTED_EDGE ( 'NONE', *, *, #227, .T. ) ;
#68 = DATE_AND_TIME ( #77, #78 ) ;
#69 = DIRECTION ( 'NONE',  ( -1.000000000000000000, -0.0000000000000000000, -0.0000000000000000000 ) ) ;
#70 = EDGE_CURVE ( 'NONE', #185, #111, #150, .T. ) ;
#71 = EDGE_LOOP ( 'NONE', ( #36, #72, #67 ) ) ;
#72 = ORIENTED_EDGE ( 'NONE', *, *, #172, .T. ) ;
#73 = CARTESIAN_POINT ( 'NONE',  ( -0.6200000000000016600, 0.0000000000000000000, 0.0000000000000000000 ) ) ;
#74 = CARTESIAN_POINT ( 'NONE',  ( -0.2049913547381970200, 0.0000000000000000000, 0.0000000000000000000 ) ) ;
#75 =( GEOMETRIC_REPRESENTATION_CONTEXT ( 3 ) GLOBAL_UNCERTAINTY_ASSIGNED_CONTEXT ( ( #94 ) ) GLOBAL_UNIT_ASSIGNED_CONTEXT ( ( #10, #151, #43 ) ) REPRESENTATION_CONTEXT ( 'NONE', 'WORKASPACE' ) );
#76 = CARTESIAN_POINT ( 'NONE',  ( -2.169999999999999900, 7.623426324692274200E-016, 6.100000000000001400 ) ) ;
#77 = CALENDAR_DATE ( 2015, 29, 5 ) ;
#78 = LOCAL_TIME ( 10, 19, 26.00000000000000000, #79 ) ;
#79 = COORDINATED_UNIVERSAL_TIME_OFFSET ( 5, 0, .BEHIND. ) ;
#80 = ORIENTED_EDGE ( 'NONE', *, *, #227, .F. ) ;
#81 = DIRECTION ( 'NONE',  ( 1.000000000000000000, 0.0000000000000000000, 0.0000000000000000000 ) ) ;
#82 = PERSON_AND_ORGANIZATION ( #22, #106 ) ;
#83 = CARTESIAN_POINT ( 'NONE',  ( -2.169999999999999900, 0.0000000000000000000, 0.0000000000000000000 ) ) ;
#84 = PRODUCT_DEFINITION_FORMATION_WITH_SPECIFIED_SOURCE ( 'ANY', '', #186, .NOT_KNOWN. ) ;
#85 = PERSON_AND_ORGANIZATION_ROLE ( 'creator' ) ;
#86 = CC_DESIGN_DATE_AND_TIME_ASSIGNMENT ( #41, #40, ( #46 ) ) ;
#87 = ORIENTED_EDGE ( 'NONE', *, *, #114, .F. ) ;
#88 = APPROVAL_DATE_TIME ( #89, #179 ) ;
#89 = DATE_AND_TIME ( #93, #98 ) ;
#90 = ORIENTED_EDGE ( 'NONE', *, *, #5, .F. ) ;
#91 = VECTOR ( 'NONE', #277, 1000.000000000000000 ) ;
#92 = CARTESIAN_POINT ( 'NONE',  ( -2.169999999999999900, 7.470345474798856300E-016, 6.100000000000001400 ) ) ;
#93 = CALENDAR_DATE ( 2015, 29, 5 ) ;
#94 = UNCERTAINTY_MEASURE_WITH_UNIT (LENGTH_MEASURE( 1.000000000000000100E-005 ), #10, 'distance_accuracy_value', 'NONE');
#95 = AXIS2_PLACEMENT_3D ( 'NONE', #74, #1, #270 ) ;
#96 = ORIENTED_EDGE ( 'NONE', *, *, #299, .T. ) ;
#97 = ORIENTED_EDGE ( 'NONE', *, *, #146, .T. ) ;
#98 = LOCAL_TIME ( 10, 19, 26.00000000000000000, #99 ) ;
#99 = COORDINATED_UNIVERSAL_TIME_OFFSET ( 5, 0, .BEHIND. ) ;
#100 = APPROVAL_PERSON_ORGANIZATION ( #103, #179, #171 ) ;
#101 = DIRECTION ( 'NONE',  ( 0.0000000000000000000, 0.0000000000000000000, 1.000000000000000000 ) ) ;
#102 = APPROVAL ( #148, 'UNSPECIFIED' ) ;
#103 = PERSON_AND_ORGANIZATION ( #22, #106 ) ;
#104 = PERSON_AND_ORGANIZATION ( #22, #106 ) ;
#105 = VERTEX_POINT ( 'NONE', #131 ) ;
#106 = ORGANIZATION ( 'UNSPECIFIED', 'UNSPECIFIED', '' ) ;
#107 = DIRECTION ( 'NONE',  ( 0.0000000000000000000, -1.000000000000000000, 0.0000000000000000000 ) ) ;
#108 = PRODUCT_DEFINITION_SHAPE ( 'NONE', 'NONE',  #184 ) ;
#109 = AXIS2_PLACEMENT_3D ( 'NONE', #73, #183, #18 ) ;
#110 = ORIENTED_EDGE ( 'NONE', *, *, #170, .T. ) ;
#111 = VERTEX_POINT ( 'NONE', #239 ) ;
#112 = CARTESIAN_POINT ( 'NONE',  ( -0.6200000000000016600, 0.0000000000000000000, 6.349999999999998800 ) ) ;
#113 = VECTOR ( 'NONE', #251, 1000.000000000000000 ) ;
#114 = EDGE_CURVE ( 'NONE', #111, #185, #282, .T. ) ;
#115 = CARTESIAN_POINT ( 'NONE',  ( -0.6200000000000016600, 7.776507174585691200E-016, -6.349999999999998800 ) ) ;
#116 = APPROVAL_DATE_TIME ( #272, #102 ) ;
#117 = EDGE_LOOP ( 'NONE', ( #39, #168, #283, #90 ) ) ;
#118 = AXIS2_PLACEMENT_3D ( 'NONE', #83, #192, #140 ) ;
#119 = CC_DESIGN_DATE_AND_TIME_ASSIGNMENT ( #68, #154, ( #184 ) ) ;
#120 = CONICAL_SURFACE ( 'NONE', #208, 6.349999999999998800, 0.4047287321692764600 ) ;
#121 = CIRCLE ( 'NONE', #134, 6.100000000000001400 ) ;
#122 = DIRECTION ( 'NONE',  ( -0.0000000000000000000, 1.000000000000000000, 1.224646799147353200E-016 ) ) ;
#123 = CC_DESIGN_PERSON_AND_ORGANIZATION_ASSIGNMENT ( #82, #85, ( #184 ) ) ;
#124 = ORIENTED_EDGE ( 'NONE', *, *, #202, .F. ) ;
#125 = CONICAL_SURFACE ( 'NONE', #109, 6.349999999999998800, 0.4047287321692764600 ) ;
#126 = FACE_OUTER_BOUND ( 'NONE', #266, .T. ) ;
#127 = ADVANCED_FACE ( 'NONE', ( #240 ), #255, .T. ) ;
#128 = EDGE_CURVE ( 'NONE', #185, #133, #242, .T. ) ;
#129 = PERSON_AND_ORGANIZATION_ROLE ( 'design_supplier' ) ;
#130 = AXIS2_PLACEMENT_3D ( 'NONE', #6, #297, #158 ) ;
#131 = CARTESIAN_POINT ( 'NONE',  ( -2.169999999999999900, 0.0000000000000000000, -6.100000000000001400 ) ) ;
#132 = CIRCLE ( 'NONE', #7, 9.199999999999995700 ) ;
#133 = VERTEX_POINT ( 'NONE', #143 ) ;
#134 = AXIS2_PLACEMENT_3D ( 'NONE', #301, #138, #236 ) ;
#135 = CARTESIAN_POINT ( 'NONE',  ( -2.169999999999999900, 0.0000000000000000000, -6.100000000000001400 ) ) ;
#136 = CC_DESIGN_APPROVAL ( #102, ( #46 ) ) ;
#137 = VERTEX_POINT ( 'NONE', #289 ) ;
#138 = DIRECTION ( 'NONE',  ( -1.000000000000000000, -0.0000000000000000000, -0.0000000000000000000 ) ) ;
#139 = VERTEX_POINT ( 'NONE', #76 ) ;
#140 = DIRECTION ( 'NONE',  ( 0.0000000000000000000, 0.0000000000000000000, -1.000000000000000000 ) ) ;
#141 = CARTESIAN_POINT ( 'NONE',  ( -0.6200000000000016600, 7.776507174585691200E-016, -6.349999999999998800 ) ) ;
#142 = AXIS2_PLACEMENT_3D ( 'NONE', #50, #9, #101 ) ;
#143 = CARTESIAN_POINT ( 'NONE',  ( -1.920000000000003300, 7.776507174585691200E-016, -6.349999999999998800 ) ) ;
#144 = APPLICATION_PROTOCOL_DEFINITION ( 'international standard', 'config_control_design', 1994, #249 ) ;
#145 = CARTESIAN_POINT ( 'NONE',  ( -2.169999999999999900, 0.0000000000000000000, 0.0000000000000000000 ) ) ;
#146 = EDGE_CURVE ( 'NONE', #246, #137, #224, .T. ) ;
#147 = MECHANICAL_CONTEXT ( 'NONE', #249, 'mechanical' ) ;
#148 = APPROVAL_STATUS ( 'not_yet_approved' ) ;
#149 = AXIS2_PLACEMENT_3D ( 'NONE', #181, #81, #248 ) ;
#150 = CIRCLE ( 'NONE', #214, 6.349999999999998800 ) ;
#151 =( NAMED_UNIT ( * ) PLANE_ANGLE_UNIT ( ) SI_UNIT ( $, .RADIAN. ) );
#152 = EDGE_LOOP ( 'NONE', ( #166, #269, #237, #193 ) ) ;
#153 = APPROVAL_STATUS ( 'not_yet_approved' ) ;
#154 = DATE_TIME_ROLE ( 'creation_date' ) ;
#155 = CARTESIAN_POINT ( 'NONE',  ( -2.169999999999999900, 7.776507174585691200E-016, -6.349999999999998800 ) ) ;
#156 = CLOSED_SHELL ( 'NONE', ( #231, #257, #180, #127, #233, #169, #204, #294, #164 ) ) ;
#157 = APPROVAL_ROLE ( '' ) ;
#158 = DIRECTION ( 'NONE',  ( 0.0000000000000000000, 0.0000000000000000000, 1.000000000000000000 ) ) ;
#159 = AXIS2_PLACEMENT_3D ( 'NONE', #295, #182, #173 ) ;
#160 = CC_DESIGN_APPROVAL ( #179, ( #184 ) ) ;
#161 = EDGE_CURVE ( 'NONE', #139, #238, #216, .T. ) ;
#162 = DESIGN_CONTEXT ( 'detailed design', #34, 'design' ) ;
#163 = ORIENTED_EDGE ( 'NONE', *, *, #51, .T. ) ;
#164 = ADVANCED_FACE ( 'NONE', ( #241 ), #177, .T. ) ;
#165 = CARTESIAN_POINT ( 'NONE',  ( -7.029999510805739100, 0.0000000000000000000, 0.003000195677703605700 ) ) ;
#166 = ORIENTED_EDGE ( 'NONE', *, *, #161, .F. ) ;
#167 = ORIENTED_EDGE ( 'NONE', *, *, #161, .T. ) ;
#168 = ORIENTED_EDGE ( 'NONE', *, *, #128, .T. ) ;
#169 = ADVANCED_FACE ( 'NONE', ( #225 ), #220, .T. ) ;
#170 = EDGE_CURVE ( 'NONE', #246, #111, #212, .T. ) ;
#171 = APPROVAL_ROLE ( '' ) ;
#172 = EDGE_CURVE ( 'NONE', #290, #137, #213, .T. ) ;
#173 = DIRECTION ( 'NONE',  ( 0.0000000000000000000, 0.0000000000000000000, -1.000000000000000000 ) ) ;
#174 = CC_DESIGN_SECURITY_CLASSIFICATION ( #46, ( #84 ) ) ;
#175 = DIRECTION ( 'NONE',  ( 0.0000000000000000000, 0.0000000000000000000, -1.000000000000000000 ) ) ;
#176 = TOROIDAL_SURFACE ( 'NONE', #130, 0.003000195677703605700, 9.199999999999995700 ) ;
#177 = CONICAL_SURFACE ( 'NONE', #190, 6.100000000000001400, 0.7853981633974500600 ) ;
#178 = DIRECTION ( 'NONE',  ( -1.000000000000000000, -0.0000000000000000000, -0.0000000000000000000 ) ) ;
#179 = APPROVAL ( #153, 'UNSPECIFIED' ) ;
#180 = ADVANCED_FACE ( 'NONE', ( #228 ), #196, .T. ) ;
#181 = CARTESIAN_POINT ( 'NONE',  ( -1.920000000000003300, 0.0000000000000000000, 0.0000000000000000000 ) ) ;
#182 = DIRECTION ( 'NONE',  ( 1.000000000000000000, 0.0000000000000000000, 0.0000000000000000000 ) ) ;
#183 = DIRECTION ( 'NONE',  ( -1.000000000000000000, -0.0000000000000000000, -0.0000000000000000000 ) ) ;
#184 = PRODUCT_DEFINITION ( 'UNKNOWN', '', #84, #162 ) ;
#185 = VERTEX_POINT ( 'NONE', #141 ) ;
#186 = PRODUCT ( '4272-E0W', '4272-E0W', '', ( #147 ) ) ;
#187 = CIRCLE ( 'NONE', #286, 6.172219244277898500 ) ;
#188 = DIRECTION ( 'NONE',  ( -1.000000000000000000, -0.0000000000000000000, -0.0000000000000000000 ) ) ;
#189 = FACE_OUTER_BOUND ( 'NONE', #267, .T. ) ;
#190 = AXIS2_PLACEMENT_3D ( 'NONE', #230, #201, #221 ) ;
#191 = DIRECTION ( 'NONE',  ( -1.000000000000000000, -0.0000000000000000000, -0.0000000000000000000 ) ) ;
#192 = DIRECTION ( 'NONE',  ( 1.000000000000000000, 0.0000000000000000000, 0.0000000000000000000 ) ) ;
#193 = ORIENTED_EDGE ( 'NONE', *, *, #37, .F. ) ;
#194 = CIRCLE ( 'NONE', #23, 6.100000000000001400 ) ;
#195 = FACE_OUTER_BOUND ( 'NONE', #268, .T. ) ;
#196 = TOROIDAL_SURFACE ( 'NONE', #235, 0.003000195677703605700, 9.199999999999995700 ) ;
#197 = AXIS2_PLACEMENT_3D ( 'NONE', #11, #122, #26 ) ;
#198 = DIRECTION ( 'NONE',  ( -1.000000000000000000, -0.0000000000000000000, -0.0000000000000000000 ) ) ;
#199 = CONICAL_SURFACE ( 'NONE', #118, 6.100000000000001400, 0.7853981633974500600 ) ;
#200 = SHAPE_DEFINITION_REPRESENTATION ( #108, #210 ) ;
#201 = DIRECTION ( 'NONE',  ( 1.000000000000000000, 0.0000000000000000000, 0.0000000000000000000 ) ) ;
#202 = EDGE_CURVE ( 'NONE', #139, #105, #194, .T. ) ;
#203 = FACE_OUTER_BOUND ( 'NONE', #54, .T. ) ;
#204 = ADVANCED_FACE ( 'NONE', ( #195 ), #176, .T. ) ;
#205 = LINE ( 'NONE', #135, #113 ) ;
#206 = DIRECTION ( 'NONE',  ( 0.0000000000000000000, 0.0000000000000000000, 1.000000000000000000 ) ) ;
#207 = DIRECTION ( 'NONE',  ( 0.0000000000000000000, 0.0000000000000000000, -1.000000000000000000 ) ) ;
#208 = AXIS2_PLACEMENT_3D ( 'NONE', #211, #69, #217 ) ;
#209 = FACE_OUTER_BOUND ( 'NONE', #8, .T. ) ;
#210 = ADVANCED_BREP_SHAPE_REPRESENTATION ( '4272-E0W', ( #288, #258 ), #75 ) ;
#211 = CARTESIAN_POINT ( 'NONE',  ( -0.6200000000000016600, 0.0000000000000000000, 0.0000000000000000000 ) ) ;
#212 = LINE ( 'NONE', #112, #232 ) ;
#213 = CIRCLE ( 'NONE', #197, 9.199999999999995700 ) ;
#214 = AXIS2_PLACEMENT_3D ( 'NONE', #300, #198, #3 ) ;
#215 = DIRECTION ( 'NONE',  ( 1.000000000000000000, 0.0000000000000000000, 0.0000000000000000000 ) ) ;
#216 = LINE ( 'NONE', #92, #253 ) ;
#217 = DIRECTION ( 'NONE',  ( 0.0000000000000000000, 0.0000000000000000000, 1.000000000000000000 ) ) ;
#218 = CARTESIAN_POINT ( 'NONE',  ( -0.2049913547381970200, 0.0000000000000000000, 6.172219244277896700 ) ) ;
#219 = CC_DESIGN_PERSON_AND_ORGANIZATION_ASSIGNMENT ( #104, #30, ( #186 ) ) ;
#220 = CYLINDRICAL_SURFACE ( 'NONE', #292, 6.349999999999998800 ) ;
#221 = DIRECTION ( 'NONE',  ( 0.0000000000000000000, 0.0000000000000000000, -1.000000000000000000 ) ) ;
#222 = CARTESIAN_POINT ( 'NONE',  ( -2.169999999999999900, 0.0000000000000000000, 6.349999999999998800 ) ) ;
#223 = SECURITY_CLASSIFICATION_LEVEL ( 'unclassified' ) ;
#224 = CIRCLE ( 'NONE', #95, 6.172219244277898500 ) ;
#225 = FACE_OUTER_BOUND ( 'NONE', #298, .T. ) ;
#226 = DIRECTION ( 'NONE',  ( -0.9192092479622112600, 0.0000000000000000000, 0.3937694229631675800 ) ) ;
#227 = EDGE_CURVE ( 'NONE', #137, #246, #187, .T. ) ;
#228 = FACE_OUTER_BOUND ( 'NONE', #71, .T. ) ;
#229 = LINE ( 'NONE', #115, #91 ) ;
#230 = CARTESIAN_POINT ( 'NONE',  ( -2.169999999999999900, 0.0000000000000000000, 0.0000000000000000000 ) ) ;
#231 = ADVANCED_FACE ( 'NONE', ( #189 ), #199, .T. ) ;
#232 = VECTOR ( 'NONE', #226, 1000.000000000000000 ) ;
#233 = ADVANCED_FACE ( 'NONE', ( #209 ), #62, .F. ) ;
#234 = ORIENTED_EDGE ( 'NONE', *, *, #70, .F. ) ;
#235 = AXIS2_PLACEMENT_3D ( 'NONE', #61, #271, #33 ) ;
#236 = DIRECTION ( 'NONE',  ( 0.0000000000000000000, 0.0000000000000000000, -1.000000000000000000 ) ) ;
#237 = ORIENTED_EDGE ( 'NONE', *, *, #252, .T. ) ;
#238 = VERTEX_POINT ( 'NONE', #265 ) ;
#239 = CARTESIAN_POINT ( 'NONE',  ( -0.6200000000000016600, 0.0000000000000000000, 6.349999999999998800 ) ) ;
#240 = FACE_OUTER_BOUND ( 'NONE', #117, .T. ) ;
#241 = FACE_OUTER_BOUND ( 'NONE', #152, .T. ) ;
#242 = LINE ( 'NONE', #155, #247 ) ;
#243 = CARTESIAN_POINT ( 'NONE',  ( -2.169999999999999900, 0.0000000000000000000, 0.0000000000000000000 ) ) ;
#244 = PERSON_AND_ORGANIZATION_ROLE ( 'creator' ) ;
#245 = DIRECTION ( 'NONE',  ( 0.0000000000000000000, 0.0000000000000000000, -1.000000000000000000 ) ) ;
#246 = VERTEX_POINT ( 'NONE', #218 ) ;
#247 = VECTOR ( 'NONE', #280, 1000.000000000000000 ) ;
#248 = DIRECTION ( 'NONE',  ( 0.0000000000000000000, 0.0000000000000000000, -1.000000000000000000 ) ) ;
#249 = APPLICATION_CONTEXT ( 'configuration controlled 3d designs of mechanical parts and assemblies' ) ;
#250 = CARTESIAN_POINT ( 'NONE',  ( -0.2049913547381970200, 0.0000000000000000000, 0.0000000000000000000 ) ) ;
#251 = DIRECTION ( 'NONE',  ( 0.7071067811865463500, 0.0000000000000000000, -0.7071067811865487900 ) ) ;
#252 = EDGE_CURVE ( 'NONE', #105, #133, #205, .T. ) ;
#253 = VECTOR ( 'NONE', #2, 1000.000000000000000 ) ;
#254 = DIRECTION ( 'NONE',  ( 0.0000000000000000000, 0.0000000000000000000, 1.000000000000000000 ) ) ;
#255 = CYLINDRICAL_SURFACE ( 'NONE', #264, 6.349999999999998800 ) ;
#256 = LINE ( 'NONE', #222, #259 ) ;
#257 = ADVANCED_FACE ( 'NONE', ( #203 ), #125, .T. ) ;
#258 = AXIS2_PLACEMENT_3D ( 'NONE', #284, #285, #215 ) ;
#259 = VECTOR ( 'NONE', #287, 1000.000000000000000 ) ;
#260 = CIRCLE ( 'NONE', #159, 6.349999999999998800 ) ;
#261 = APPROVAL_ROLE ( '' ) ;
#262 = CIRCLE ( 'NONE', #149, 6.349999999999998800 ) ;
#263 = ORIENTED_EDGE ( 'NONE', *, *, #202, .T. ) ;
#264 = AXIS2_PLACEMENT_3D ( 'NONE', #29, #178, #60 ) ;
#265 = CARTESIAN_POINT ( 'NONE',  ( -1.920000000000003300, 0.0000000000000000000, 6.349999999999998800 ) ) ;
#266 = EDGE_LOOP ( 'NONE', ( #45, #291, #110, #234 ) ) ;
#267 = EDGE_LOOP ( 'NONE', ( #124, #167, #279, #296 ) ) ;
#268 = EDGE_LOOP ( 'NONE', ( #13, #65, #97 ) ) ;
#269 = ORIENTED_EDGE ( 'NONE', *, *, #299, .F. ) ;
#270 = DIRECTION ( 'NONE',  ( 0.0000000000000000000, 0.0000000000000000000, 1.000000000000000000 ) ) ;
#271 = DIRECTION ( 'NONE',  ( -1.000000000000000000, -0.0000000000000000000, -0.0000000000000000000 ) ) ;
#272 = DATE_AND_TIME ( #19, #20 ) ;
#273 = CARTESIAN_POINT ( 'NONE',  ( -2.169999999999999900, 0.0000000000000000000, 0.0000000000000000000 ) ) ;
#274 = ORIENTED_EDGE ( 'NONE', *, *, #5, .T. ) ;
#275 = ORIENTED_EDGE ( 'NONE', *, *, #170, .F. ) ;
#276 = EDGE_CURVE ( 'NONE', #290, #246, #132, .T. ) ;
#277 = DIRECTION ( 'NONE',  ( -0.9192092479622112600, 4.822284634339434900E-017, -0.3937694229631675800 ) ) ;
#278 = ORIENTED_EDGE ( 'NONE', *, *, #128, .F. ) ;
#279 = ORIENTED_EDGE ( 'NONE', *, *, #17, .F. ) ;
#280 = DIRECTION ( 'NONE',  ( -1.000000000000000000, -0.0000000000000000000, -0.0000000000000000000 ) ) ;
#281 = PRODUCT_RELATED_PRODUCT_CATEGORY ( 'detail', '', ( #186 ) ) ;
#282 = CIRCLE ( 'NONE', #142, 6.349999999999998800 ) ;
#283 = ORIENTED_EDGE ( 'NONE', *, *, #17, .T. ) ;
#284 = CARTESIAN_POINT ( 'NONE',  ( 0.0000000000000000000, 0.0000000000000000000, 0.0000000000000000000 ) ) ;
#285 = DIRECTION ( 'NONE',  ( 0.0000000000000000000, 0.0000000000000000000, 1.000000000000000000 ) ) ;
#286 = AXIS2_PLACEMENT_3D ( 'NONE', #250, #35, #206 ) ;
#287 = DIRECTION ( 'NONE',  ( -1.000000000000000000, -0.0000000000000000000, -0.0000000000000000000 ) ) ;
#288 = MANIFOLD_SOLID_BREP ( '4272-001-1-solid1', #156 ) ;
#289 = CARTESIAN_POINT ( 'NONE',  ( -0.2049913547381970200, 7.558788541140622400E-016, -6.172219244277896700 ) ) ;
#290 = VERTEX_POINT ( 'NONE', #52 ) ;
#291 = ORIENTED_EDGE ( 'NONE', *, *, #146, .F. ) ;
#292 = AXIS2_PLACEMENT_3D ( 'NONE', #273, #188, #254 ) ;
#293 = APPLICATION_PROTOCOL_DEFINITION ( 'international standard', 'config_control_design', 1994, #34 ) ;
#294 = ADVANCED_FACE ( 'NONE', ( #126 ), #120, .T. ) ;
#295 = CARTESIAN_POINT ( 'NONE',  ( -1.920000000000003300, 0.0000000000000000000, 0.0000000000000000000 ) ) ;
#296 = ORIENTED_EDGE ( 'NONE', *, *, #252, .F. ) ;
#297 = DIRECTION ( 'NONE',  ( -1.000000000000000000, -0.0000000000000000000, -0.0000000000000000000 ) ) ;
#298 = EDGE_LOOP ( 'NONE', ( #278, #21, #274, #32 ) ) ;
#299 = EDGE_CURVE ( 'NONE', #105, #139, #121, .T. ) ;
#300 = CARTESIAN_POINT ( 'NONE',  ( -0.6200000000000016600, 0.0000000000000000000, 0.0000000000000000000 ) ) ;
#301 = CARTESIAN_POINT ( 'NONE',  ( -2.169999999999999900, 0.0000000000000000000, 0.0000000000000000000 ) ) ;
ENDSEC;
END-ISO-10303-21;
