ISO-10303-21;
HEADER;
FILE_DESCRIPTION (( 'STEP AP203' ),
    '1' );
FILE_NAME ('Web Model 19822_19825.step',
    '2022-01-03T21:58:27',
    ( '' ),
    ( '' ),
    'SwSTEP 2.0',
    'SolidWorks 2018',
    '' );
FILE_SCHEMA (( 'CONFIG_CONTROL_DESIGN' ));
ENDSEC;

DATA;
#1 = AXIS2_PLACEMENT_3D ( 'NONE', #22, #37, #51 ) ;
#2 = CARTESIAN_POINT ( 'NONE',  ( 0.000000000000000000, 0.000000000000000000, 1.500000000000000000 ) ) ;
#3 = DIRECTION ( 'NONE',  ( -1.000000000000000000, 0.000000000000000000, 0.000000000000000000 ) ) ;
#4 = SHAPE_DEFINITION_REPRESENTATION ( #45, #75 ) ;
#5 = MECHANICAL_CONTEXT ( 'NONE', #98, 'mechanical' ) ;
#6 = DIRECTION ( 'NONE',  ( 0.000000000000000000, 0.000000000000000000, 1.000000000000000000 ) ) ;
#7 = CC_DESIGN_PERSON_AND_ORGANIZATION_ASSIGNMENT ( #42, #12, ( #104 ) ) ;
#8 = DIRECTION ( 'NONE',  ( -1.000000000000000000, 0.000000000000000000, 0.000000000000000000 ) ) ;
#9 = AXIS2_PLACEMENT_3D ( 'NONE', #85, #63, #102 ) ;
#10 = VERTEX_POINT ( 'NONE', #132 ) ;
#11 = PERSON_AND_ORGANIZATION_ROLE ( 'design_supplier' ) ;
#12 = PERSON_AND_ORGANIZATION_ROLE ( 'classification_officer' ) ;
#13 = PERSON_AND_ORGANIZATION_ROLE ( 'creator' ) ;
#14 = ORIENTED_EDGE ( 'NONE', *, *, #156, .F. ) ;
#15 = EDGE_CURVE ( 'NONE', #76, #10, #56, .T. ) ;
#16 = AXIS2_PLACEMENT_3D ( 'NONE', #149, #82, #36 ) ;
#17 = CARTESIAN_POINT ( 'NONE',  ( -10.00000000000000000, 0.000000000000000000, 0.000000000000000000 ) ) ;
#18 = CC_DESIGN_PERSON_AND_ORGANIZATION_ASSIGNMENT ( #83, #137, ( #133 ) ) ;
#19 = AXIS2_PLACEMENT_3D ( 'NONE', #73, #23, #86 ) ;
#20 = APPLICATION_PROTOCOL_DEFINITION ( 'international standard', 'config_control_design', 1994, #98 ) ;
#21 = LINE ( 'NONE', #61, #134 ) ;
#22 = CARTESIAN_POINT ( 'NONE',  ( 0.000000000000000000, 0.000000000000000000, 1.500000000000000000 ) ) ;
#23 = DIRECTION ( 'NONE',  ( 0.000000000000000000, 0.000000000000000000, 1.000000000000000000 ) ) ;
#24 = PERSON_AND_ORGANIZATION ( #53, #95 ) ;
#25 = APPROVAL ( #168, 'UNSPECIFIED' ) ;
#26 = SECURITY_CLASSIFICATION_LEVEL ( 'unclassified' ) ;
#27 = PERSON_AND_ORGANIZATION ( #53, #95 ) ;
#28 = COORDINATED_UNIVERSAL_TIME_OFFSET ( 5, 0, .BEHIND. ) ;
#29 = CC_DESIGN_DATE_AND_TIME_ASSIGNMENT ( #157, #55, ( #104 ) ) ;
#30 = ORIENTED_EDGE ( 'NONE', *, *, #128, .F. ) ;
#31 = AXIS2_PLACEMENT_3D ( 'NONE', #50, #101, #3 ) ;
#32 = APPROVAL_PERSON_ORGANIZATION ( #79, #25, #90 ) ;
#33 = CLOSED_SHELL ( 'NONE', ( #140, #94, #171, #58 ) ) ;
#34 = DIRECTION ( 'NONE',  ( 1.000000000000000000, 0.000000000000000000, 0.000000000000000000 ) ) ;
#35 = DIRECTION ( 'NONE',  ( 0.000000000000000000, 0.000000000000000000, 1.000000000000000000 ) ) ;
#36 = DIRECTION ( 'NONE',  ( 1.000000000000000000, 0.000000000000000000, -0.000000000000000000 ) ) ;
#37 = DIRECTION ( 'NONE',  ( 0.000000000000000000, 0.000000000000000000, 1.000000000000000000 ) ) ;
#38 = DATE_AND_TIME ( #70, #129 ) ;
#39 = UNCERTAINTY_MEASURE_WITH_UNIT (LENGTH_MEASURE( 1.000000000000000082E-05 ), #153, 'distance_accuracy_value', 'NONE');
#40 = LOCAL_TIME ( 16, 58, 27.00000000000000000, #126 ) ;
#41 = ORIENTED_EDGE ( 'NONE', *, *, #92, .F. ) ;
#42 = PERSON_AND_ORGANIZATION ( #53, #95 ) ;
#43 = EDGE_LOOP ( 'NONE', ( #41, #14 ) ) ;
#44 = PLANE ( 'NONE',  #16 ) ;
#45 = PRODUCT_DEFINITION_SHAPE ( 'NONE', 'NONE',  #54 ) ;
#46 = VERTEX_POINT ( 'NONE', #17 ) ;
#47 = APPLICATION_PROTOCOL_DEFINITION ( 'international standard', 'config_control_design', 1994, #130 ) ;
#48 = DIRECTION ( 'NONE',  ( -0.000000000000000000, -0.000000000000000000, -1.000000000000000000 ) ) ;
#49 = APPROVAL ( #120, 'UNSPECIFIED' ) ;
#50 = CARTESIAN_POINT ( 'NONE',  ( 0.000000000000000000, 0.000000000000000000, 1.500000000000000000 ) ) ;
#51 = DIRECTION ( 'NONE',  ( 1.000000000000000000, 0.000000000000000000, -0.000000000000000000 ) ) ;
#52 = PERSON_AND_ORGANIZATION ( #53, #95 ) ;
#53 = PERSON ( 'UNSPECIFIED', 'UNSPECIFIED', 'UNSPECIFIED', ('UNSPECIFIED'), ('UNSPECIFIED'), ('UNSPECIFIED') ) ;
#54 = PRODUCT_DEFINITION ( 'UNKNOWN', '', #133, #109 ) ;
#55 = DATE_TIME_ROLE ( 'classification_date' ) ;
#56 = CIRCLE ( 'NONE', #162, 10.00000000000000000 ) ;
#57 = CC_DESIGN_SECURITY_CLASSIFICATION ( #104, ( #133 ) ) ;
#58 = ADVANCED_FACE ( 'NONE', ( #169 ), #44, .F. ) ;
#59 = CC_DESIGN_DATE_AND_TIME_ASSIGNMENT ( #66, #65, ( #54 ) ) ;
#60 = APPROVAL_PERSON_ORGANIZATION ( #69, #124, #67 ) ;
#61 = CARTESIAN_POINT ( 'NONE',  ( 10.00000000000000000, 1.224646799147353256E-15, 1.500000000000000000 ) ) ;
#62 = FACE_OUTER_BOUND ( 'NONE', #88, .T. ) ;
#63 = DIRECTION ( 'NONE',  ( 0.000000000000000000, 0.000000000000000000, 1.000000000000000000 ) ) ;
#64 = CARTESIAN_POINT ( 'NONE',  ( 10.00000000000000000, 1.224646799147353256E-15, 0.000000000000000000 ) ) ;
#65 = DATE_TIME_ROLE ( 'creation_date' ) ;
#66 = DATE_AND_TIME ( #122, #103 ) ;
#67 = APPROVAL_ROLE ( '' ) ;
#68 = ORIENTED_EDGE ( 'NONE', *, *, #151, .T. ) ;
#69 = PERSON_AND_ORGANIZATION ( #53, #95 ) ;
#70 = CALENDAR_DATE ( 2022, 3, 1 ) ;
#71 = LOCAL_TIME ( 16, 58, 27.00000000000000000, #28 ) ;
#72 =( NAMED_UNIT ( * ) PLANE_ANGLE_UNIT ( ) SI_UNIT ( $, .RADIAN. ) );
#73 = CARTESIAN_POINT ( 'NONE',  ( 0.000000000000000000, 0.000000000000000000, 0.000000000000000000 ) ) ;
#74 = CARTESIAN_POINT ( 'NONE',  ( 0.000000000000000000, 0.000000000000000000, 0.000000000000000000 ) ) ;
#75 = ADVANCED_BREP_SHAPE_REPRESENTATION ( 'Web Model 19822_19825', ( #127, #174 ), #143 ) ;
#76 = VERTEX_POINT ( 'NONE', #175 ) ;
#77 = VECTOR ( 'NONE', #48, 1000.000000000000000 ) ;
#78 = ORIENTED_EDGE ( 'NONE', *, *, #146, .F. ) ;
#79 = PERSON_AND_ORGANIZATION ( #53, #95 ) ;
#80 = EDGE_LOOP ( 'NONE', ( #119, #138, #160, #111 ) ) ;
#81 = ORIENTED_EDGE ( 'NONE', *, *, #156, .T. ) ;
#82 = DIRECTION ( 'NONE',  ( 0.000000000000000000, 0.000000000000000000, 1.000000000000000000 ) ) ;
#83 = PERSON_AND_ORGANIZATION ( #53, #95 ) ;
#84 = LOCAL_TIME ( 16, 58, 27.00000000000000000, #118 ) ;
#85 = CARTESIAN_POINT ( 'NONE',  ( 0.000000000000000000, 0.000000000000000000, 1.500000000000000000 ) ) ;
#86 = DIRECTION ( 'NONE',  ( 1.000000000000000000, 0.000000000000000000, 0.000000000000000000 ) ) ;
#87 = CARTESIAN_POINT ( 'NONE',  ( 0.000000000000000000, 0.000000000000000000, 1.500000000000000000 ) ) ;
#88 = EDGE_LOOP ( 'NONE', ( #150, #96 ) ) ;
#89 = APPROVAL_DATE_TIME ( #38, #49 ) ;
#90 = APPROVAL_ROLE ( '' ) ;
#91 = CIRCLE ( 'NONE', #170, 10.00000000000000000 ) ;
#92 = EDGE_CURVE ( 'NONE', #46, #115, #91, .T. ) ;
#93 = CC_DESIGN_APPROVAL ( #25, ( #133 ) ) ;
#94 = ADVANCED_FACE ( 'NONE', ( #139 ), #164, .T. ) ;
#95 = ORGANIZATION ( 'UNSPECIFIED', 'UNSPECIFIED', '' ) ;
#96 = ORIENTED_EDGE ( 'NONE', *, *, #128, .T. ) ;
#97 = CC_DESIGN_APPROVAL ( #124, ( #104 ) ) ;
#98 = APPLICATION_CONTEXT ( 'configuration controlled 3d designs of mechanical parts and assemblies' ) ;
#99 = DIRECTION ( 'NONE',  ( 1.000000000000000000, 0.000000000000000000, 0.000000000000000000 ) ) ;
#100 = PERSON_AND_ORGANIZATION_ROLE ( 'design_owner' ) ;
#101 = DIRECTION ( 'NONE',  ( -0.000000000000000000, -0.000000000000000000, -1.000000000000000000 ) ) ;
#102 = DIRECTION ( 'NONE',  ( 1.000000000000000000, 0.000000000000000000, 0.000000000000000000 ) ) ;
#103 = LOCAL_TIME ( 16, 58, 27.00000000000000000, #172 ) ;
#104 = SECURITY_CLASSIFICATION ( '', '', #26 ) ;
#105 = APPROVAL_PERSON_ORGANIZATION ( #24, #49, #145 ) ;
#106 = APPROVAL_STATUS ( 'not_yet_approved' ) ;
#107 = PRODUCT ( 'Web Model 19822_19825', 'Web Model 19822_19825', '', ( #5 ) ) ;
#108 = APPROVAL_DATE_TIME ( #144, #124 ) ;
#109 = DESIGN_CONTEXT ( 'detailed design', #130, 'design' ) ;
#110 = CC_DESIGN_PERSON_AND_ORGANIZATION_ASSIGNMENT ( #27, #100, ( #107 ) ) ;
#111 = ORIENTED_EDGE ( 'NONE', *, *, #92, .T. ) ;
#112 = CARTESIAN_POINT ( 'NONE',  ( 0.000000000000000000, 0.000000000000000000, 0.000000000000000000 ) ) ;
#113 = CIRCLE ( 'NONE', #9, 10.00000000000000000 ) ;
#114 = CALENDAR_DATE ( 2022, 3, 1 ) ;
#115 = VERTEX_POINT ( 'NONE', #64 ) ;
#116 =( NAMED_UNIT ( * ) SI_UNIT ( $, .STERADIAN. ) SOLID_ANGLE_UNIT ( ) );
#117 = CC_DESIGN_PERSON_AND_ORGANIZATION_ASSIGNMENT ( #52, #11, ( #133 ) ) ;
#118 = COORDINATED_UNIVERSAL_TIME_OFFSET ( 5, 0, .BEHIND. ) ;
#119 = ORIENTED_EDGE ( 'NONE', *, *, #151, .F. ) ;
#120 = APPROVAL_STATUS ( 'not_yet_approved' ) ;
#121 = CC_DESIGN_APPROVAL ( #49, ( #54 ) ) ;
#122 = CALENDAR_DATE ( 2022, 3, 1 ) ;
#123 = PERSON_AND_ORGANIZATION ( #53, #95 ) ;
#124 = APPROVAL ( #106, 'UNSPECIFIED' ) ;
#125 = CALENDAR_DATE ( 2022, 3, 1 ) ;
#126 = COORDINATED_UNIVERSAL_TIME_OFFSET ( 5, 0, .BEHIND. ) ;
#127 = MANIFOLD_SOLID_BREP ( 'Boss-Extrude1', #33 ) ;
#128 = EDGE_CURVE ( 'NONE', #10, #76, #113, .T. ) ;
#129 = LOCAL_TIME ( 16, 58, 27.00000000000000000, #158 ) ;
#130 = APPLICATION_CONTEXT ( 'configuration controlled 3d designs of mechanical parts and assemblies' ) ;
#131 = EDGE_LOOP ( 'NONE', ( #30, #68, #81, #78 ) ) ;
#132 = CARTESIAN_POINT ( 'NONE',  ( 10.00000000000000000, 1.224646799147353256E-15, 1.500000000000000000 ) ) ;
#133 = PRODUCT_DEFINITION_FORMATION_WITH_SPECIFIED_SOURCE ( 'ANY', '', #107, .NOT_KNOWN. ) ;
#134 = VECTOR ( 'NONE', #167, 1000.000000000000000 ) ;
#135 = PLANE ( 'NONE',  #1 ) ;
#136 = DATE_AND_TIME ( #163, #84 ) ;
#137 = PERSON_AND_ORGANIZATION_ROLE ( 'creator' ) ;
#138 = ORIENTED_EDGE ( 'NONE', *, *, #15, .F. ) ;
#139 = FACE_OUTER_BOUND ( 'NONE', #80, .T. ) ;
#140 = ADVANCED_FACE ( 'NONE', ( #173 ), #166, .T. ) ;
#141 = LINE ( 'NONE', #155, #77 ) ;
#142 = PRODUCT_RELATED_PRODUCT_CATEGORY ( 'detail', '', ( #107 ) ) ;
#143 =( GEOMETRIC_REPRESENTATION_CONTEXT ( 3 ) GLOBAL_UNCERTAINTY_ASSIGNED_CONTEXT ( ( #39 ) ) GLOBAL_UNIT_ASSIGNED_CONTEXT ( ( #153, #72, #116 ) ) REPRESENTATION_CONTEXT ( 'NONE', 'WORKASPACE' ) );
#144 = DATE_AND_TIME ( #125, #40 ) ;
#145 = APPROVAL_ROLE ( '' ) ;
#146 = EDGE_CURVE ( 'NONE', #76, #46, #141, .T. ) ;
#147 = APPROVAL_DATE_TIME ( #136, #25 ) ;
#148 = CC_DESIGN_PERSON_AND_ORGANIZATION_ASSIGNMENT ( #123, #13, ( #54 ) ) ;
#149 = CARTESIAN_POINT ( 'NONE',  ( 0.000000000000000000, 0.000000000000000000, 0.000000000000000000 ) ) ;
#150 = ORIENTED_EDGE ( 'NONE', *, *, #15, .T. ) ;
#151 = EDGE_CURVE ( 'NONE', #10, #115, #21, .T. ) ;
#152 = DIRECTION ( 'NONE',  ( 0.000000000000000000, 0.000000000000000000, 1.000000000000000000 ) ) ;
#153 =( LENGTH_UNIT ( ) NAMED_UNIT ( * ) SI_UNIT ( .MILLI., .METRE. ) );
#154 = DIRECTION ( 'NONE',  ( 1.000000000000000000, 0.000000000000000000, 0.000000000000000000 ) ) ;
#155 = CARTESIAN_POINT ( 'NONE',  ( -10.00000000000000000, 0.000000000000000000, 1.500000000000000000 ) ) ;
#156 = EDGE_CURVE ( 'NONE', #115, #46, #161, .T. ) ;
#157 = DATE_AND_TIME ( #114, #71 ) ;
#158 = COORDINATED_UNIVERSAL_TIME_OFFSET ( 5, 0, .BEHIND. ) ;
#159 = AXIS2_PLACEMENT_3D ( 'NONE', #2, #165, #8 ) ;
#160 = ORIENTED_EDGE ( 'NONE', *, *, #146, .T. ) ;
#161 = CIRCLE ( 'NONE', #19, 10.00000000000000000 ) ;
#162 = AXIS2_PLACEMENT_3D ( 'NONE', #87, #152, #99 ) ;
#163 = CALENDAR_DATE ( 2022, 3, 1 ) ;
#164 = CYLINDRICAL_SURFACE ( 'NONE', #31, 10.00000000000000000 ) ;
#165 = DIRECTION ( 'NONE',  ( -0.000000000000000000, -0.000000000000000000, -1.000000000000000000 ) ) ;
#166 = CYLINDRICAL_SURFACE ( 'NONE', #159, 10.00000000000000000 ) ;
#167 = DIRECTION ( 'NONE',  ( -0.000000000000000000, -0.000000000000000000, -1.000000000000000000 ) ) ;
#168 = APPROVAL_STATUS ( 'not_yet_approved' ) ;
#169 = FACE_OUTER_BOUND ( 'NONE', #43, .T. ) ;
#170 = AXIS2_PLACEMENT_3D ( 'NONE', #74, #6, #154 ) ;
#171 = ADVANCED_FACE ( 'NONE', ( #62 ), #135, .T. ) ;
#172 = COORDINATED_UNIVERSAL_TIME_OFFSET ( 5, 0, .BEHIND. ) ;
#173 = FACE_OUTER_BOUND ( 'NONE', #131, .T. ) ;
#174 = AXIS2_PLACEMENT_3D ( 'NONE', #112, #35, #34 ) ;
#175 = CARTESIAN_POINT ( 'NONE',  ( -10.00000000000000000, 0.000000000000000000, 1.500000000000000000 ) ) ;
ENDSEC;
END-ISO-10303-21;
