ISO-10303-21;
HEADER;
FILE_DESCRIPTION (( 'STEP AP214' ),
    '1' );
FILE_NAME ('3497-E0W.STEP',
    '2010-12-06T18:28:07',
    ( 'Admin' ),
    ( 'Thorlabs, Inc.' ),
    'SwSTEP 2.0',
    'SolidWorks 2009',
    '' );
FILE_SCHEMA (( 'AUTOMOTIVE_DESIGN' ));
ENDSEC;

DATA;
#1 = EDGE_LOOP ( 'NONE', ( #72, #86, #54, #3 ) ) ;
#2 = ORIENTED_EDGE ( 'NONE', *, *, #8, .F. ) ;
#3 = ORIENTED_EDGE ( 'NONE', *, *, #55, .F. ) ;
#4 = EDGE_LOOP ( 'NONE', ( #50, #6, #69, #2 ) ) ;
#5 = ADVANCED_FACE ( 'NONE', ( #51 ), #113, .T. ) ;
#6 = ORIENTED_EDGE ( 'NONE', *, *, #55, .T. ) ;
#7 = ORIENTED_EDGE ( 'NONE', *, *, #13, .F. ) ;
#8 = EDGE_CURVE ( 'NONE', #61, #38, #112, .T. ) ;
#9 = ADVANCED_FACE ( 'NONE', ( #114 ), #154, .T. ) ;
#10 = ORIENTED_EDGE ( 'NONE', *, *, #93, .F. ) ;
#11 = ADVANCED_FACE ( 'NONE', ( #149 ), #138, .T. ) ;
#12 = EDGE_LOOP ( 'NONE', ( #10, #36, #71, #80 ) ) ;
#13 = EDGE_CURVE ( 'NONE', #26, #23, #137, .T. ) ;
#14 = ADVANCED_FACE ( 'NONE', ( #127 ), #193, .F. ) ;
#15 = EDGE_LOOP ( 'NONE', ( #35, #87, #37 ) ) ;
#16 = EDGE_LOOP ( 'NONE', ( #24, #18, #7 ) ) ;
#17 = ADVANCED_FACE ( 'NONE', ( #212 ), #214, .F. ) ;
#18 = ORIENTED_EDGE ( 'NONE', *, *, #22, .T. ) ;
#19 = ADVANCED_FACE ( 'NONE', ( #205 ), #179, .T. ) ;
#20 = EDGE_LOOP ( 'NONE', ( #32, #31, #28, #29 ) ) ;
#21 = EDGE_CURVE ( 'NONE', #26, #85, #235, .T. ) ;
#22 = EDGE_CURVE ( 'NONE', #30, #23, #236, .T. ) ;
#23 = VERTEX_POINT ( 'NONE', #241 ) ;
#24 = ORIENTED_EDGE ( 'NONE', *, *, #25, .F. ) ;
#25 = EDGE_CURVE ( 'NONE', #30, #26, #238, .T. ) ;
#26 = VERTEX_POINT ( 'NONE', #229 ) ;
#27 = EDGE_CURVE ( 'NONE', #30, #63, #228, .T. ) ;
#28 = ORIENTED_EDGE ( 'NONE', *, *, #84, .F. ) ;
#29 = ORIENTED_EDGE ( 'NONE', *, *, #21, .F. ) ;
#30 = VERTEX_POINT ( 'NONE', #221 ) ;
#31 = ORIENTED_EDGE ( 'NONE', *, *, #27, .T. ) ;
#32 = ORIENTED_EDGE ( 'NONE', *, *, #33, .T. ) ;
#33 = EDGE_CURVE ( 'NONE', #26, #30, #218, .T. ) ;
#34 = ORIENTED_EDGE ( 'NONE', *, *, #70, .T. ) ;
#35 = ORIENTED_EDGE ( 'NONE', *, *, #22, .F. ) ;
#36 = ORIENTED_EDGE ( 'NONE', *, *, #70, .F. ) ;
#37 = ORIENTED_EDGE ( 'NONE', *, *, #13, .T. ) ;
#38 = VERTEX_POINT ( 'NONE', #289 ) ;
#39 = ORIENTED_EDGE ( 'NONE', *, *, #89, .T. ) ;
#40 = CLOSED_SHELL ( 'NONE', ( #57, #81, #19, #17, #14, #5, #49, #11, #9 ) ) ;
#41 =( LENGTH_UNIT ( ) NAMED_UNIT ( * ) SI_UNIT ( .MILLI., .METRE. ) );
#42 = MECHANICAL_DESIGN_GEOMETRIC_PRESENTATION_REPRESENTATION (  '', ( #44 ), #94 ) ;
#43 = PRESENTATION_LAYER_ASSIGNMENT (  '', '', ( #44 ) ) ;
#44 = STYLED_ITEM ( 'NONE', ( #45 ), #5 ) ;
#45 = PRESENTATION_STYLE_ASSIGNMENT (( #73 ) ) ;
#46 = UNCERTAINTY_MEASURE_WITH_UNIT (LENGTH_MEASURE( 1.000000000000000100E-005 ), #41, 'distance_accuracy_value', 'NONE');
#47 =( NAMED_UNIT ( * ) SI_UNIT ( $, .STERADIAN. ) SOLID_ANGLE_UNIT ( ) );
#48 =( NAMED_UNIT ( * ) PLANE_ANGLE_UNIT ( ) SI_UNIT ( $, .RADIAN. ) );
#49 = ADVANCED_FACE ( 'NONE', ( #269 ), #247, .T. ) ;
#50 = ORIENTED_EDGE ( 'NONE', *, *, #65, .F. ) ;
#51 = FACE_OUTER_BOUND ( 'NONE', #1, .T. ) ;
#52 =( GEOMETRIC_REPRESENTATION_CONTEXT ( 3 ) GLOBAL_UNCERTAINTY_ASSIGNED_CONTEXT ( ( #362 ) ) GLOBAL_UNIT_ASSIGNED_CONTEXT ( ( #365, #364, #363 ) ) REPRESENTATION_CONTEXT ( 'NONE', 'WORKASPACE' ) );
#53 = EDGE_CURVE ( 'NONE', #91, #61, #244, .T. ) ;
#54 = ORIENTED_EDGE ( 'NONE', *, *, #21, .T. ) ;
#55 = EDGE_CURVE ( 'NONE', #63, #85, #265, .T. ) ;
#56 = MANIFOLD_SOLID_BREP ( 'NONE', #40 ) ;
#57 = ADVANCED_FACE ( 'NONE', ( #313 ), #286, .T. ) ;
#58 = EDGE_LOOP ( 'NONE', ( #88, #92, #59, #62 ) ) ;
#59 = ORIENTED_EDGE ( 'NONE', *, *, #60, .T. ) ;
#60 = EDGE_CURVE ( 'NONE', #38, #61, #285, .T. ) ;
#61 = VERTEX_POINT ( 'NONE', #276 ) ;
#62 = ORIENTED_EDGE ( 'NONE', *, *, #53, .F. ) ;
#63 = VERTEX_POINT ( 'NONE', #275 ) ;
#64 = ORIENTED_EDGE ( 'NONE', *, *, #65, .T. ) ;
#65 = EDGE_CURVE ( 'NONE', #63, #61, #312, .T. ) ;
#66 = ORIENTED_EDGE ( 'NONE', *, *, #60, .F. ) ;
#67 = ORIENTED_EDGE ( 'NONE', *, *, #68, .F. ) ;
#68 = EDGE_CURVE ( 'NONE', #85, #38, #308, .T. ) ;
#69 = ORIENTED_EDGE ( 'NONE', *, *, #68, .T. ) ;
#70 = EDGE_CURVE ( 'NONE', #91, #90, #303, .T. ) ;
#71 = ORIENTED_EDGE ( 'NONE', *, *, #53, .T. ) ;
#72 = ORIENTED_EDGE ( 'NONE', *, *, #27, .F. ) ;
#73 = SURFACE_STYLE_USAGE ( .BOTH. , #74 ) ;
#74 = SURFACE_SIDE_STYLE ('',( #75 ) ) ;
#75 = SURFACE_STYLE_FILL_AREA ( #76 ) ;
#76 = FILL_AREA_STYLE ('',( #77 ) ) ;
#77 = FILL_AREA_STYLE_COLOUR ( '', #78 ) ;
#78 = COLOUR_RGB ( '',0.7529411764705882200, 0.7529411764705882200, 0.7529411764705882200 ) ;
#79 = EDGE_LOOP ( 'NONE', ( #34, #39 ) ) ;
#80 = ORIENTED_EDGE ( 'NONE', *, *, #8, .T. ) ;
#81 = ADVANCED_FACE ( 'NONE', ( #351 ), #333, .T. ) ;
#82 = EDGE_LOOP ( 'NONE', ( #83, #64, #66, #67 ) ) ;
#83 = ORIENTED_EDGE ( 'NONE', *, *, #84, .T. ) ;
#84 = EDGE_CURVE ( 'NONE', #85, #63, #346, .T. ) ;
#85 = VERTEX_POINT ( 'NONE', #341 ) ;
#86 = ORIENTED_EDGE ( 'NONE', *, *, #25, .T. ) ;
#87 = ORIENTED_EDGE ( 'NONE', *, *, #33, .F. ) ;
#88 = ORIENTED_EDGE ( 'NONE', *, *, #89, .F. ) ;
#89 = EDGE_CURVE ( 'NONE', #90, #91, #339, .T. ) ;
#90 = VERTEX_POINT ( 'NONE', #340 ) ;
#91 = VERTEX_POINT ( 'NONE', #370 ) ;
#92 = ORIENTED_EDGE ( 'NONE', *, *, #93, .T. ) ;
#93 = EDGE_CURVE ( 'NONE', #90, #38, #369, .T. ) ;
#94 =( GEOMETRIC_REPRESENTATION_CONTEXT ( 3 ) GLOBAL_UNCERTAINTY_ASSIGNED_CONTEXT ( ( #46 ) ) GLOBAL_UNIT_ASSIGNED_CONTEXT ( ( #41, #48, #47 ) ) REPRESENTATION_CONTEXT ( 'NONE', 'WORKASPACE' ) );
#95 = DIRECTION ( 'NONE',  ( -0.0000000000000000000, 3.061616997868383100E-016, -1.000000000000000000 ) ) ;
#96 = AXIS2_PLACEMENT_3D ( 'NONE', #108, #95, #111 ) ;
#97 = SURFACE_STYLE_USAGE ( .BOTH. , #98 ) ;
#98 = SURFACE_SIDE_STYLE ('',( #101 ) ) ;
#99 = DIRECTION ( 'NONE',  ( -0.0000000000000000000, 3.061616997868383100E-016, -1.000000000000000000 ) ) ;
#100 =( NAMED_UNIT ( * ) PLANE_ANGLE_UNIT ( ) SI_UNIT ( $, .RADIAN. ) );
#101 = SURFACE_STYLE_FILL_AREA ( #102 ) ;
#102 = FILL_AREA_STYLE ('',( #116 ) ) ;
#103 = CARTESIAN_POINT ( 'NONE',  ( 0.0000000000000000000, 1.732686096690770200E-015, -1.608578643762691400 ) ) ;
#104 = STYLED_ITEM ( 'NONE', ( #106 ), #9 ) ;
#105 = DIRECTION ( 'NONE',  ( 0.0000000000000000000, 1.000000000000000000, 3.073328992872296900E-016 ) ) ;
#106 = PRESENTATION_STYLE_ASSIGNMENT (( #97 ) ) ;
#107 = PRESENTATION_LAYER_ASSIGNMENT (  '', '', ( #104 ) ) ;
#108 = CARTESIAN_POINT ( 'NONE',  ( 0.0000000000000000000, 4.863105859357765900E-016, 2.462392714257494800 ) ) ;
#109 =( LENGTH_UNIT ( ) NAMED_UNIT ( * ) SI_UNIT ( .MILLI., .METRE. ) );
#110 = MECHANICAL_DESIGN_GEOMETRIC_PRESENTATION_REPRESENTATION (  '', ( #104 ), #161 ) ;
#111 = DIRECTION ( 'NONE',  ( 0.0000000000000000000, 1.000000000000000000, 2.731847993664262700E-016 ) ) ;
#112 = CIRCLE ( 'NONE', #117, 6.349999999999998800 ) ;
#113 = CONICAL_SURFACE ( 'NONE', #96, 6.350000000000001400, 0.7853981633974452800 ) ;
#114 = FACE_OUTER_BOUND ( 'NONE', #79, .T. ) ;
#115 = COLOUR_RGB ( '',0.7529411764705882200, 0.7529411764705882200, 0.7529411764705882200 ) ;
#116 = FILL_AREA_STYLE_COLOUR ( '', #115 ) ;
#117 = AXIS2_PLACEMENT_3D ( 'NONE', #103, #99, #105 ) ;
#118 = MECHANICAL_DESIGN_GEOMETRIC_PRESENTATION_REPRESENTATION (  '', ( #120 ), #165 ) ;
#119 = PRESENTATION_LAYER_ASSIGNMENT (  '', '', ( #120 ) ) ;
#120 = STYLED_ITEM ( 'NONE', ( #121 ), #14 ) ;
#121 = PRESENTATION_STYLE_ASSIGNMENT (( #122 ) ) ;
#122 = SURFACE_STYLE_USAGE ( .BOTH. , #123 ) ;
#123 = SURFACE_SIDE_STYLE ('',( #124 ) ) ;
#124 = SURFACE_STYLE_FILL_AREA ( #125 ) ;
#125 = FILL_AREA_STYLE ('',( #132 ) ) ;
#126 = COLOUR_RGB ( '',0.7529411764705882200, 0.7529411764705882200, 0.7529411764705882200 ) ;
#127 = FACE_OUTER_BOUND ( 'NONE', #15, .T. ) ;
#128 = DIRECTION ( 'NONE',  ( 0.0000000000000000000, 0.0000000000000000000, 1.000000000000000000 ) ) ;
#129 = DIRECTION ( 'NONE',  ( -1.000000000000000000, 0.0000000000000000000, 0.0000000000000000000 ) ) ;
#130 = CARTESIAN_POINT ( 'NONE',  ( 0.0000000000000000000, 1.071811989992816600E-015, 24.75000000000000000 ) ) ;
#131 = AXIS2_PLACEMENT_3D ( 'NONE', #130, #129, #128 ) ;
#132 = FILL_AREA_STYLE_COLOUR ( '', #126 ) ;
#133 = DIRECTION ( 'NONE',  ( 0.0000000000000000000, -1.000000000000000000, -3.143334444888611200E-016 ) ) ;
#134 = DIRECTION ( 'NONE',  ( 0.0000000000000000000, -3.061616997868383100E-016, 1.000000000000000000 ) ) ;
#135 = CARTESIAN_POINT ( 'NONE',  ( 0.0000000000000000000, 1.775983899502545100E-015, -1.750000000000000900 ) ) ;
#136 = AXIS2_PLACEMENT_3D ( 'NONE', #135, #134, #133 ) ;
#137 = CIRCLE ( 'NONE', #131, 23.00000000000000000 ) ;
#138 = CONICAL_SURFACE ( 'NONE', #136, 6.208578643762689500, 0.7853981633974490600 ) ;
#139 =( GEOMETRIC_REPRESENTATION_CONTEXT ( 3 ) GLOBAL_UNCERTAINTY_ASSIGNED_CONTEXT ( ( #140 ) ) GLOBAL_UNIT_ASSIGNED_CONTEXT ( ( #158, #142, #141 ) ) REPRESENTATION_CONTEXT ( 'NONE', 'WORKASPACE' ) );
#140 = UNCERTAINTY_MEASURE_WITH_UNIT (LENGTH_MEASURE( 1.000000000000000100E-005 ), #158, 'distance_accuracy_value', 'NONE');
#141 =( NAMED_UNIT ( * ) SI_UNIT ( $, .STERADIAN. ) SOLID_ANGLE_UNIT ( ) );
#142 =( NAMED_UNIT ( * ) PLANE_ANGLE_UNIT ( ) SI_UNIT ( $, .RADIAN. ) );
#143 = STYLED_ITEM ( 'NONE', ( #144 ), #11 ) ;
#144 = PRESENTATION_STYLE_ASSIGNMENT (( #145 ) ) ;
#145 = SURFACE_STYLE_USAGE ( .BOTH. , #146 ) ;
#146 = SURFACE_SIDE_STYLE ('',( #147 ) ) ;
#147 = SURFACE_STYLE_FILL_AREA ( #155 ) ;
#148 = COLOUR_RGB ( '',0.7529411764705882200, 0.7529411764705882200, 0.7529411764705882200 ) ;
#149 = FACE_OUTER_BOUND ( 'NONE', #12, .T. ) ;
#150 = DIRECTION ( 'NONE',  ( 0.0000000000000000000, 1.000000000000000000, 3.061616997868383100E-016 ) ) ;
#151 = DIRECTION ( 'NONE',  ( -0.0000000000000000000, 3.061616997868383100E-016, -1.000000000000000000 ) ) ;
#152 = CARTESIAN_POINT ( 'NONE',  ( 0.0000000000000000000, 1.775983899502544700E-015, -1.750000000000000200 ) ) ;
#153 = AXIS2_PLACEMENT_3D ( 'NONE', #152, #151, #150 ) ;
#154 = PLANE ( 'NONE',  #153 ) ;
#155 = FILL_AREA_STYLE ('',( #156 ) ) ;
#156 = FILL_AREA_STYLE_COLOUR ( '', #148 ) ;
#157 = UNCERTAINTY_MEASURE_WITH_UNIT (LENGTH_MEASURE( 1.000000000000000100E-005 ), #109, 'distance_accuracy_value', 'NONE');
#158 =( LENGTH_UNIT ( ) NAMED_UNIT ( * ) SI_UNIT ( .MILLI., .METRE. ) );
#159 = MECHANICAL_DESIGN_GEOMETRIC_PRESENTATION_REPRESENTATION (  '', ( #143 ), #139 ) ;
#160 = PRESENTATION_LAYER_ASSIGNMENT (  '', '', ( #143 ) ) ;
#161 =( GEOMETRIC_REPRESENTATION_CONTEXT ( 3 ) GLOBAL_UNCERTAINTY_ASSIGNED_CONTEXT ( ( #157 ) ) GLOBAL_UNIT_ASSIGNED_CONTEXT ( ( #109, #100, #162 ) ) REPRESENTATION_CONTEXT ( 'NONE', 'WORKASPACE' ) );
#162 =( NAMED_UNIT ( * ) SI_UNIT ( $, .STERADIAN. ) SOLID_ANGLE_UNIT ( ) );
#163 =( LENGTH_UNIT ( ) NAMED_UNIT ( * ) SI_UNIT ( .MILLI., .METRE. ) );
#164 = DIRECTION ( 'NONE',  ( 0.0000000000000000000, 1.000000000000000000, 2.731847993664262700E-016 ) ) ;
#165 =( GEOMETRIC_REPRESENTATION_CONTEXT ( 3 ) GLOBAL_UNCERTAINTY_ASSIGNED_CONTEXT ( ( #168 ) ) GLOBAL_UNIT_ASSIGNED_CONTEXT ( ( #163, #167, #166 ) ) REPRESENTATION_CONTEXT ( 'NONE', 'WORKASPACE' ) );
#166 =( NAMED_UNIT ( * ) SI_UNIT ( $, .STERADIAN. ) SOLID_ANGLE_UNIT ( ) );
#167 =( NAMED_UNIT ( * ) PLANE_ANGLE_UNIT ( ) SI_UNIT ( $, .RADIAN. ) );
#168 = UNCERTAINTY_MEASURE_WITH_UNIT (LENGTH_MEASURE( 1.000000000000000100E-005 ), #163, 'distance_accuracy_value', 'NONE');
#169 = SURFACE_STYLE_USAGE ( .BOTH. , #217 ) ;
#170 = DIRECTION ( 'NONE',  ( -0.0000000000000000000, 3.061616997868383100E-016, -1.000000000000000000 ) ) ;
#171 = CARTESIAN_POINT ( 'NONE',  ( 0.0000000000000000000, 4.863105859357765900E-016, 2.462392714257494800 ) ) ;
#172 = AXIS2_PLACEMENT_3D ( 'NONE', #171, #170, #164 ) ;
#173 = DIRECTION ( 'NONE',  ( -0.0000000000000000000, 3.061616997868383100E-016, -1.000000000000000000 ) ) ;
#174 = CARTESIAN_POINT ( 'NONE',  ( 0.0000000000000000000, 4.430127831240013200E-016, 2.603814070494806300 ) ) ;
#175 = AXIS2_PLACEMENT_3D ( 'NONE', #174, #173, #242 ) ;
#176 = DIRECTION ( 'NONE',  ( 1.000000000000000000, 0.0000000000000000000, -0.0000000000000000000 ) ) ;
#177 = PRESENTATION_LAYER_ASSIGNMENT (  '', '', ( #199 ) ) ;
#178 =( NAMED_UNIT ( * ) PLANE_ANGLE_UNIT ( ) SI_UNIT ( $, .RADIAN. ) );
#179 = CONICAL_SURFACE ( 'NONE', #172, 6.350000000000001400, 0.7853981633974452800 ) ;
#180 =( GEOMETRIC_REPRESENTATION_CONTEXT ( 3 ) GLOBAL_UNCERTAINTY_ASSIGNED_CONTEXT ( ( #210 ) ) GLOBAL_UNIT_ASSIGNED_CONTEXT ( ( #191, #190, #211 ) ) REPRESENTATION_CONTEXT ( 'NONE', 'WORKASPACE' ) );
#181 = MECHANICAL_DESIGN_GEOMETRIC_PRESENTATION_REPRESENTATION (  '', ( #183 ), #180 ) ;
#182 = PRESENTATION_LAYER_ASSIGNMENT (  '', '', ( #183 ) ) ;
#183 = STYLED_ITEM ( 'NONE', ( #184 ), #19 ) ;
#184 = PRESENTATION_STYLE_ASSIGNMENT (( #185 ) ) ;
#185 = SURFACE_STYLE_USAGE ( .BOTH. , #186 ) ;
#186 = SURFACE_SIDE_STYLE ('',( #187 ) ) ;
#187 = SURFACE_STYLE_FILL_AREA ( #188 ) ;
#188 = FILL_AREA_STYLE ('',( #189 ) ) ;
#189 = FILL_AREA_STYLE_COLOUR ( '', #204 ) ;
#190 =( NAMED_UNIT ( * ) PLANE_ANGLE_UNIT ( ) SI_UNIT ( $, .RADIAN. ) );
#191 =( LENGTH_UNIT ( ) NAMED_UNIT ( * ) SI_UNIT ( .MILLI., .METRE. ) );
#192 = CARTESIAN_POINT ( 'NONE',  ( 0.0000000000000000000, 1.071811989992816600E-015, 24.75000000000000000 ) ) ;
#193 = SPHERICAL_SURFACE ( 'NONE', #195, 23.00000000000000000 ) ;
#194 = PRESENTATION_STYLE_ASSIGNMENT (( #169 ) ) ;
#195 = AXIS2_PLACEMENT_3D ( 'NONE', #192, #176, #198 ) ;
#196 =( LENGTH_UNIT ( ) NAMED_UNIT ( * ) SI_UNIT ( .MILLI., .METRE. ) );
#197 = MECHANICAL_DESIGN_GEOMETRIC_PRESENTATION_REPRESENTATION (  '', ( #199 ), #215 ) ;
#198 = DIRECTION ( 'NONE',  ( 0.0000000000000000000, 1.000000000000000000, 3.016910393003142900E-016 ) ) ;
#199 = STYLED_ITEM ( 'NONE', ( #194 ), #17 ) ;
#200 = UNCERTAINTY_MEASURE_WITH_UNIT (LENGTH_MEASURE( 1.000000000000000100E-005 ), #196, 'distance_accuracy_value', 'NONE');
#201 = DIRECTION ( 'NONE',  ( 0.0000000000000000000, 1.000000000000000000, 3.016910393003142900E-016 ) ) ;
#202 = DIRECTION ( 'NONE',  ( 1.000000000000000000, 0.0000000000000000000, -0.0000000000000000000 ) ) ;
#203 = AXIS2_PLACEMENT_3D ( 'NONE', #213, #202, #201 ) ;
#204 = COLOUR_RGB ( '',0.7529411764705882200, 0.7529411764705882200, 0.7529411764705882200 ) ;
#205 = FACE_OUTER_BOUND ( 'NONE', #20, .T. ) ;
#206 = FILL_AREA_STYLE ('',( #216 ) ) ;
#207 = COLOUR_RGB ( '',0.7529411764705882200, 0.7529411764705882200, 0.7529411764705882200 ) ;
#208 = SURFACE_STYLE_FILL_AREA ( #206 ) ;
#209 =( NAMED_UNIT ( * ) SI_UNIT ( $, .STERADIAN. ) SOLID_ANGLE_UNIT ( ) );
#210 = UNCERTAINTY_MEASURE_WITH_UNIT (LENGTH_MEASURE( 1.000000000000000100E-005 ), #191, 'distance_accuracy_value', 'NONE');
#211 =( NAMED_UNIT ( * ) SI_UNIT ( $, .STERADIAN. ) SOLID_ANGLE_UNIT ( ) );
#212 = FACE_OUTER_BOUND ( 'NONE', #16, .T. ) ;
#213 = CARTESIAN_POINT ( 'NONE',  ( 0.0000000000000000000, 1.071811989992816600E-015, 24.75000000000000000 ) ) ;
#214 = SPHERICAL_SURFACE ( 'NONE', #203, 23.00000000000000000 ) ;
#215 =( GEOMETRIC_REPRESENTATION_CONTEXT ( 3 ) GLOBAL_UNCERTAINTY_ASSIGNED_CONTEXT ( ( #200 ) ) GLOBAL_UNIT_ASSIGNED_CONTEXT ( ( #196, #178, #209 ) ) REPRESENTATION_CONTEXT ( 'NONE', 'WORKASPACE' ) );
#216 = FILL_AREA_STYLE_COLOUR ( '', #207 ) ;
#217 = SURFACE_SIDE_STYLE ('',( #208 ) ) ;
#218 = CIRCLE ( 'NONE', #175, 6.208578643762692200 ) ;
#219 = DIRECTION ( 'NONE',  ( 0.0000000000000000000, 1.000000000000000000, 3.143334444888611200E-016 ) ) ;
#220 = DIRECTION ( 'NONE',  ( -0.0000000000000000000, 3.061616997868383100E-016, -1.000000000000000000 ) ) ;
#221 = CARTESIAN_POINT ( 'NONE',  ( 7.603064855357712200E-016, -6.208578643762686000, 2.603814070494804500 ) ) ;
#222 = DIRECTION ( 'NONE',  ( 8.659274570719327100E-017, -0.7071067811865451300, -0.7071067811865499000 ) ) ;
#223 = VECTOR ( 'NONE', #222, 1000.000000000000100 ) ;
#224 = DIRECTION ( 'NONE',  ( -1.224606353822377300E-016, 1.000000000000000000, 0.0000000000000000000 ) ) ;
#225 = DIRECTION ( 'NONE',  ( 1.000000000000000000, 1.224606353822377300E-016, 3.749275628560213600E-032 ) ) ;
#226 = CARTESIAN_POINT ( 'NONE',  ( 0.0000000000000000000, 1.071811989992816600E-015, 24.75000000000000000 ) ) ;
#227 = CARTESIAN_POINT ( 'NONE',  ( 7.776250346772097400E-016, -6.350000000000000500, 2.462392714257493500 ) ) ;
#228 = LINE ( 'NONE', #227, #223 ) ;
#229 = CARTESIAN_POINT ( 'NONE',  ( 0.0000000000000000000, 6.208578643762694900, 2.603814070494805800 ) ) ;
#230 = DIRECTION ( 'NONE',  ( 0.0000000000000000000, 1.000000000000000000, 2.794075062123208900E-016 ) ) ;
#231 = DIRECTION ( 'NONE',  ( -0.0000000000000000000, 3.061616997868383100E-016, -1.000000000000000000 ) ) ;
#232 = CARTESIAN_POINT ( 'NONE',  ( 0.0000000000000000000, 4.430127831240013200E-016, 2.603814070494806300 ) ) ;
#233 = AXIS2_PLACEMENT_3D ( 'NONE', #232, #231, #230 ) ;
#234 = CARTESIAN_POINT ( 'NONE',  ( 0.0000000000000000000, 6.350000000000002300, 2.462392714257496600 ) ) ;
#235 = LINE ( 'NONE', #234, #240 ) ;
#236 = CIRCLE ( 'NONE', #237, 23.00000000000000000 ) ;
#237 = AXIS2_PLACEMENT_3D ( 'NONE', #226, #225, #224 ) ;
#238 = CIRCLE ( 'NONE', #233, 6.208578643762692200 ) ;
#239 = DIRECTION ( 'NONE',  ( 0.0000000000000000000, 0.7071067811865455700, -0.7071067811865493500 ) ) ;
#240 = VECTOR ( 'NONE', #239, 1000.000000000000100 ) ;
#241 = CARTESIAN_POINT ( 'NONE',  ( 0.0000000000000000000, 9.521828391985831700E-015, 1.750000000000001600 ) ) ;
#242 = DIRECTION ( 'NONE',  ( 0.0000000000000000000, 1.000000000000000000, 2.794075062123208900E-016 ) ) ;
#243 = SURFACE_STYLE_USAGE ( .BOTH. , #291 ) ;
#244 = LINE ( 'NONE', #298, #299 ) ;
#245 = DIRECTION ( 'NONE',  ( 0.0000000000000000000, 1.000000000000000000, 3.073328992872296400E-016 ) ) ;
#246 = AXIS2_PLACEMENT_3D ( 'NONE', #292, #290, #245 ) ;
#247 = CYLINDRICAL_SURFACE ( 'NONE', #246, 6.349999999999999600 ) ;
#248 = SURFACE_SIDE_STYLE ('',( #249 ) ) ;
#249 = SURFACE_STYLE_FILL_AREA ( #250 ) ;
#250 = FILL_AREA_STYLE ('',( #251 ) ) ;
#251 = FILL_AREA_STYLE_COLOUR ( '', #266 ) ;
#252 = DIRECTION ( 'NONE',  ( 0.0000000000000000000, 1.000000000000000000, 2.731847993664262700E-016 ) ) ;
#253 = DIRECTION ( 'NONE',  ( -0.0000000000000000000, 3.061616997868383100E-016, -1.000000000000000000 ) ) ;
#254 = CARTESIAN_POINT ( 'NONE',  ( 0.0000000000000000000, 4.863105859357765900E-016, 2.462392714257494800 ) ) ;
#255 = AXIS2_PLACEMENT_3D ( 'NONE', #254, #253, #252 ) ;
#256 = MECHANICAL_DESIGN_GEOMETRIC_PRESENTATION_REPRESENTATION (  '', ( #264 ), #294 ) ;
#257 =( LENGTH_UNIT ( ) NAMED_UNIT ( * ) SI_UNIT ( .MILLI., .METRE. ) );
#258 = MECHANICAL_DESIGN_GEOMETRIC_PRESENTATION_REPRESENTATION (  '', ( #260 ), #314 ) ;
#259 = PRESENTATION_LAYER_ASSIGNMENT (  '', '', ( #260 ) ) ;
#260 = STYLED_ITEM ( 'NONE', ( #261 ), #56 ) ;
#261 = PRESENTATION_STYLE_ASSIGNMENT (( #262 ) ) ;
#262 = SURFACE_STYLE_USAGE ( .BOTH. , #248 ) ;
#263 = PRESENTATION_LAYER_ASSIGNMENT (  '', '', ( #264 ) ) ;
#264 = STYLED_ITEM ( 'NONE', ( #272 ), #49 ) ;
#265 = CIRCLE ( 'NONE', #255, 6.350000000000001400 ) ;
#266 = COLOUR_RGB ( '',0.7960784313725489700, 0.8235294117647058400, 0.9372549019607843100 ) ;
#267 = DIRECTION ( 'NONE',  ( 0.0000000000000000000, -0.7071067811865483500, 0.7071067811865468000 ) ) ;
#268 = COLOUR_RGB ( '',0.7529411764705882200, 0.7529411764705882200, 0.7529411764705882200 ) ;
#269 = FACE_OUTER_BOUND ( 'NONE', #4, .T. ) ;
#270 = SURFACE_STYLE_FILL_AREA ( #293 ) ;
#271 =( LENGTH_UNIT ( ) NAMED_UNIT ( * ) SI_UNIT ( .MILLI., .METRE. ) );
#272 = PRESENTATION_STYLE_ASSIGNMENT (( #243 ) ) ;
#273 = UNCERTAINTY_MEASURE_WITH_UNIT (LENGTH_MEASURE( 1.000000000000000100E-005 ), #271, 'distance_accuracy_value', 'NONE');
#274 =( NAMED_UNIT ( * ) SI_UNIT ( $, .STERADIAN. ) SOLID_ANGLE_UNIT ( ) );
#275 = CARTESIAN_POINT ( 'NONE',  ( 7.776250346772097400E-016, -6.350000000000000500, 2.462392714257493500 ) ) ;
#276 = CARTESIAN_POINT ( 'NONE',  ( 7.776250346772094400E-016, -6.349999999999997000, -1.608578643762693400 ) ) ;
#277 = DIRECTION ( 'NONE',  ( 0.0000000000000000000, 1.000000000000000000, 3.073328992872296900E-016 ) ) ;
#278 = DIRECTION ( 'NONE',  ( -0.0000000000000000000, 3.061616997868383100E-016, -1.000000000000000000 ) ) ;
#279 = CARTESIAN_POINT ( 'NONE',  ( 0.0000000000000000000, 1.732686096690770200E-015, -1.608578643762691400 ) ) ;
#280 = AXIS2_PLACEMENT_3D ( 'NONE', #279, #278, #277 ) ;
#281 = DIRECTION ( 'NONE',  ( 0.0000000000000000000, -1.000000000000000000, -3.143334444888611200E-016 ) ) ;
#282 = DIRECTION ( 'NONE',  ( 0.0000000000000000000, -3.061616997868383100E-016, 1.000000000000000000 ) ) ;
#283 = CARTESIAN_POINT ( 'NONE',  ( 0.0000000000000000000, 1.775983899502545100E-015, -1.750000000000000900 ) ) ;
#284 = AXIS2_PLACEMENT_3D ( 'NONE', #283, #282, #281 ) ;
#285 = CIRCLE ( 'NONE', #280, 6.349999999999998800 ) ;
#286 = CONICAL_SURFACE ( 'NONE', #284, 6.208578643762689500, 0.7853981633974490600 ) ;
#287 =( GEOMETRIC_REPRESENTATION_CONTEXT ( 3 ) GLOBAL_UNCERTAINTY_ASSIGNED_CONTEXT ( ( #315 ) ) GLOBAL_UNIT_ASSIGNED_CONTEXT ( ( #318, #317, #316 ) ) REPRESENTATION_CONTEXT ( 'NONE', 'WORKASPACE' ) );
#288 =( NAMED_UNIT ( * ) PLANE_ANGLE_UNIT ( ) SI_UNIT ( $, .RADIAN. ) );
#289 = CARTESIAN_POINT ( 'NONE',  ( 0.0000000000000000000, 6.350000000000000500, -1.608578643762689400 ) ) ;
#290 = DIRECTION ( 'NONE',  ( -0.0000000000000000000, 3.061616997868383100E-016, -1.000000000000000000 ) ) ;
#291 = SURFACE_SIDE_STYLE ('',( #270 ) ) ;
#292 = CARTESIAN_POINT ( 'NONE',  ( 0.0000000000000000000, 1.775983899502544700E-015, -1.750000000000000000 ) ) ;
#293 = FILL_AREA_STYLE ('',( #300 ) ) ;
#294 =( GEOMETRIC_REPRESENTATION_CONTEXT ( 3 ) GLOBAL_UNCERTAINTY_ASSIGNED_CONTEXT ( ( #273 ) ) GLOBAL_UNIT_ASSIGNED_CONTEXT ( ( #271, #288, #274 ) ) REPRESENTATION_CONTEXT ( 'NONE', 'WORKASPACE' ) );
#295 = UNCERTAINTY_MEASURE_WITH_UNIT (LENGTH_MEASURE( 1.000000000000000100E-005 ), #257, 'distance_accuracy_value', 'NONE');
#296 =( NAMED_UNIT ( * ) SI_UNIT ( $, .STERADIAN. ) SOLID_ANGLE_UNIT ( ) );
#297 =( NAMED_UNIT ( * ) PLANE_ANGLE_UNIT ( ) SI_UNIT ( $, .RADIAN. ) );
#298 = CARTESIAN_POINT ( 'NONE',  ( 0.0000000000000000000, -6.208578643762687800, -1.750000000000002900 ) ) ;
#299 = VECTOR ( 'NONE', #267, 999.9999999999998900 ) ;
#300 = FILL_AREA_STYLE_COLOUR ( '', #268 ) ;
#301 = CARTESIAN_POINT ( 'NONE',  ( 0.0000000000000000000, 1.775983899502545100E-015, -1.750000000000000900 ) ) ;
#302 = AXIS2_PLACEMENT_3D ( 'NONE', #301, #220, #219 ) ;
#303 = CIRCLE ( 'NONE', #302, 6.208578643762689500 ) ;
#304 = ADVANCED_BREP_SHAPE_REPRESENTATION ( '3497-E0W', ( #56, #397 ), #52 ) ;
#305 = DIRECTION ( 'NONE',  ( -0.0000000000000000000, 3.061616997868383100E-016, -1.000000000000000000 ) ) ;
#306 = VECTOR ( 'NONE', #305, 1000.000000000000000 ) ;
#307 = CARTESIAN_POINT ( 'NONE',  ( 0.0000000000000000000, 6.350000000000001400, -1.749999999999998000 ) ) ;
#308 = LINE ( 'NONE', #307, #306 ) ;
#309 = DIRECTION ( 'NONE',  ( -0.0000000000000000000, 3.061616997868383100E-016, -1.000000000000000000 ) ) ;
#310 = VECTOR ( 'NONE', #309, 1000.000000000000000 ) ;
#311 = CARTESIAN_POINT ( 'NONE',  ( 7.776250346772095400E-016, -6.349999999999997900, -1.750000000000002000 ) ) ;
#312 = LINE ( 'NONE', #311, #310 ) ;
#313 = FACE_OUTER_BOUND ( 'NONE', #58, .T. ) ;
#314 =( GEOMETRIC_REPRESENTATION_CONTEXT ( 3 ) GLOBAL_UNCERTAINTY_ASSIGNED_CONTEXT ( ( #295 ) ) GLOBAL_UNIT_ASSIGNED_CONTEXT ( ( #257, #297, #296 ) ) REPRESENTATION_CONTEXT ( 'NONE', 'WORKASPACE' ) );
#315 = UNCERTAINTY_MEASURE_WITH_UNIT (LENGTH_MEASURE( 1.000000000000000100E-005 ), #318, 'distance_accuracy_value', 'NONE');
#316 =( NAMED_UNIT ( * ) SI_UNIT ( $, .STERADIAN. ) SOLID_ANGLE_UNIT ( ) );
#317 =( NAMED_UNIT ( * ) PLANE_ANGLE_UNIT ( ) SI_UNIT ( $, .RADIAN. ) );
#318 =( LENGTH_UNIT ( ) NAMED_UNIT ( * ) SI_UNIT ( .MILLI., .METRE. ) );
#319 = MECHANICAL_DESIGN_GEOMETRIC_PRESENTATION_REPRESENTATION (  '', ( #321 ), #287 ) ;
#320 = PRESENTATION_LAYER_ASSIGNMENT (  '', '', ( #321 ) ) ;
#321 = STYLED_ITEM ( 'NONE', ( #322 ), #57 ) ;
#322 = PRESENTATION_STYLE_ASSIGNMENT (( #323 ) ) ;
#323 = SURFACE_STYLE_USAGE ( .BOTH. , #324 ) ;
#324 = SURFACE_SIDE_STYLE ('',( #325 ) ) ;
#325 = SURFACE_STYLE_FILL_AREA ( #326 ) ;
#326 = FILL_AREA_STYLE ('',( #327 ) ) ;
#327 = FILL_AREA_STYLE_COLOUR ( '', #328 ) ;
#328 = COLOUR_RGB ( '',0.7529411764705882200, 0.7529411764705882200, 0.7529411764705882200 ) ;
#329 = UNCERTAINTY_MEASURE_WITH_UNIT (LENGTH_MEASURE( 1.000000000000000100E-005 ), #356, 'distance_accuracy_value', 'NONE');
#330 =( NAMED_UNIT ( * ) SI_UNIT ( $, .STERADIAN. ) SOLID_ANGLE_UNIT ( ) );
#331 = CARTESIAN_POINT ( 'NONE',  ( 0.0000000000000000000, 1.775983899502544700E-015, -1.750000000000000000 ) ) ;
#332 = AXIS2_PLACEMENT_3D ( 'NONE', #331, #348, #347 ) ;
#333 = CYLINDRICAL_SURFACE ( 'NONE', #332, 6.349999999999999600 ) ;
#334 =( GEOMETRIC_REPRESENTATION_CONTEXT ( 3 ) GLOBAL_UNCERTAINTY_ASSIGNED_CONTEXT ( ( #329 ) ) GLOBAL_UNIT_ASSIGNED_CONTEXT ( ( #356, #354, #330 ) ) REPRESENTATION_CONTEXT ( 'NONE', 'WORKASPACE' ) );
#335 = DIRECTION ( 'NONE',  ( 0.0000000000000000000, 1.000000000000000000, 3.143334444888611200E-016 ) ) ;
#336 = DIRECTION ( 'NONE',  ( -0.0000000000000000000, 3.061616997868383100E-016, -1.000000000000000000 ) ) ;
#337 = CARTESIAN_POINT ( 'NONE',  ( 0.0000000000000000000, 1.775983899502545100E-015, -1.750000000000000900 ) ) ;
#338 = AXIS2_PLACEMENT_3D ( 'NONE', #337, #336, #335 ) ;
#339 = CIRCLE ( 'NONE', #338, 6.208578643762689500 ) ;
#340 = CARTESIAN_POINT ( 'NONE',  ( 7.689657601064900300E-016, 6.208578643762691300, -1.749999999999998900 ) ) ;
#341 = CARTESIAN_POINT ( 'NONE',  ( 0.0000000000000000000, 6.350000000000002300, 2.462392714257496600 ) ) ;
#342 = DIRECTION ( 'NONE',  ( 0.0000000000000000000, 1.000000000000000000, 2.731847993664262700E-016 ) ) ;
#343 = DIRECTION ( 'NONE',  ( -0.0000000000000000000, 3.061616997868383100E-016, -1.000000000000000000 ) ) ;
#344 = CARTESIAN_POINT ( 'NONE',  ( 0.0000000000000000000, 4.863105859357765900E-016, 2.462392714257494800 ) ) ;
#345 = AXIS2_PLACEMENT_3D ( 'NONE', #344, #343, #342 ) ;
#346 = CIRCLE ( 'NONE', #345, 6.350000000000001400 ) ;
#347 = DIRECTION ( 'NONE',  ( 0.0000000000000000000, 1.000000000000000000, 3.073328992872296400E-016 ) ) ;
#348 = DIRECTION ( 'NONE',  ( -0.0000000000000000000, 3.061616997868383100E-016, -1.000000000000000000 ) ) ;
#349 = SURFACE_STYLE_USAGE ( .BOTH. , #357 ) ;
#350 = PRESENTATION_LAYER_ASSIGNMENT (  '', '', ( #358 ) ) ;
#351 = FACE_OUTER_BOUND ( 'NONE', #82, .T. ) ;
#352 = SURFACE_STYLE_FILL_AREA ( #355 ) ;
#353 = PRESENTATION_STYLE_ASSIGNMENT (( #349 ) ) ;
#354 =( NAMED_UNIT ( * ) PLANE_ANGLE_UNIT ( ) SI_UNIT ( $, .RADIAN. ) );
#355 = FILL_AREA_STYLE ('',( #361 ) ) ;
#356 =( LENGTH_UNIT ( ) NAMED_UNIT ( * ) SI_UNIT ( .MILLI., .METRE. ) );
#357 = SURFACE_SIDE_STYLE ('',( #352 ) ) ;
#358 = STYLED_ITEM ( 'NONE', ( #353 ), #81 ) ;
#359 = COLOUR_RGB ( '',0.7529411764705882200, 0.7529411764705882200, 0.7529411764705882200 ) ;
#360 = MECHANICAL_DESIGN_GEOMETRIC_PRESENTATION_REPRESENTATION (  '', ( #358 ), #334 ) ;
#361 = FILL_AREA_STYLE_COLOUR ( '', #359 ) ;
#362 = UNCERTAINTY_MEASURE_WITH_UNIT (LENGTH_MEASURE( 1.000000000000000100E-005 ), #365, 'distance_accuracy_value', 'NONE');
#363 =( NAMED_UNIT ( * ) SI_UNIT ( $, .STERADIAN. ) SOLID_ANGLE_UNIT ( ) );
#364 =( NAMED_UNIT ( * ) PLANE_ANGLE_UNIT ( ) SI_UNIT ( $, .RADIAN. ) );
#365 =( LENGTH_UNIT ( ) NAMED_UNIT ( * ) SI_UNIT ( .MILLI., .METRE. ) );
#366 = DIRECTION ( 'NONE',  ( 8.659274570719361600E-017, 0.7071067811865479100, 0.7071067811865472400 ) ) ;
#367 = VECTOR ( 'NONE', #366, 999.9999999999998900 ) ;
#368 = CARTESIAN_POINT ( 'NONE',  ( 7.603064855357707200E-016, 6.208578643762691300, -1.749999999999998900 ) ) ;
#369 = LINE ( 'NONE', #368, #367 ) ;
#370 = CARTESIAN_POINT ( 'NONE',  ( 0.0000000000000000000, -6.208578643762687800, -1.750000000000002900 ) ) ;
#371 = PRODUCT_DEFINITION_SHAPE ( 'NONE', 'NONE',  #374 ) ;
#372 = PRODUCT_RELATED_PRODUCT_CATEGORY ( 'part', '', ( #378 ) ) ;
#373 = PRODUCT_DEFINITION_FORMATION_WITH_SPECIFIED_SOURCE ( 'ANY', '', #378, .NOT_KNOWN. ) ;
#374 = PRODUCT_DEFINITION ( 'UNKNOWN', '', #373, #375 ) ;
#375 = PRODUCT_DEFINITION_CONTEXT ( 'detailed design', #377, 'design' ) ;
#376 = APPLICATION_PROTOCOL_DEFINITION ( 'draft international standard', 'automotive_design', 1998, #377 ) ;
#377 = APPLICATION_CONTEXT ( 'automotive_design' ) ;
#378 = PRODUCT ( '3497-E0W', '3497-E0W', '', ( #379 ) ) ;
#379 = PRODUCT_CONTEXT ( 'NONE', #394, 'mechanical' ) ;
#380 = APPLICATION_PROTOCOL_DEFINITION ( 'draft international standard', 'automotive_design', 1998, #394 ) ;
#381 = PRESENTATION_STYLE_ASSIGNMENT (( #382 ) ) ;
#382 = SURFACE_STYLE_USAGE ( .BOTH. , #383 ) ;
#383 = SURFACE_SIDE_STYLE ('',( #384 ) ) ;
#384 = SURFACE_STYLE_FILL_AREA ( #385 ) ;
#385 = FILL_AREA_STYLE ('',( #391 ) ) ;
#386 = MECHANICAL_DESIGN_GEOMETRIC_PRESENTATION_REPRESENTATION (  '', ( #388 ), #399 ) ;
#387 = PRESENTATION_LAYER_ASSIGNMENT (  '', '', ( #388 ) ) ;
#388 = STYLED_ITEM ( 'NONE', ( #381 ), #304 ) ;
#389 =( LENGTH_UNIT ( ) NAMED_UNIT ( * ) SI_UNIT ( .MILLI., .METRE. ) );
#390 =( NAMED_UNIT ( * ) PLANE_ANGLE_UNIT ( ) SI_UNIT ( $, .RADIAN. ) );
#391 = FILL_AREA_STYLE_COLOUR ( '', #392 ) ;
#392 = COLOUR_RGB ( '',0.7960784313725489700, 0.8235294117647058400, 0.9372549019607843100 ) ;
#393 = SHAPE_DEFINITION_REPRESENTATION ( #371, #304 ) ;
#394 = APPLICATION_CONTEXT ( 'automotive_design' ) ;
#395 = DIRECTION ( 'NONE',  ( 1.000000000000000000, 0.0000000000000000000, 0.0000000000000000000 ) ) ;
#396 = DIRECTION ( 'NONE',  ( 0.0000000000000000000, 0.0000000000000000000, 1.000000000000000000 ) ) ;
#397 = AXIS2_PLACEMENT_3D ( 'NONE', #398, #396, #395 ) ;
#398 = CARTESIAN_POINT ( 'NONE',  ( 0.0000000000000000000, 0.0000000000000000000, 0.0000000000000000000 ) ) ;
#399 =( GEOMETRIC_REPRESENTATION_CONTEXT ( 3 ) GLOBAL_UNCERTAINTY_ASSIGNED_CONTEXT ( ( #400 ) ) GLOBAL_UNIT_ASSIGNED_CONTEXT ( ( #389, #390, #401 ) ) REPRESENTATION_CONTEXT ( 'NONE', 'WORKASPACE' ) );
#400 = UNCERTAINTY_MEASURE_WITH_UNIT (LENGTH_MEASURE( 1.000000000000000100E-005 ), #389, 'distance_accuracy_value', 'NONE');
#401 =( NAMED_UNIT ( * ) SI_UNIT ( $, .STERADIAN. ) SOLID_ANGLE_UNIT ( ) );
ENDSEC;
END-ISO-10303-21;
