ISO-10303-21;
HEADER;
FILE_DESCRIPTION (( 'STEP AP203' ),
    '1' );
FILE_NAME ('Web Model 45570_45570.step',
    '2019-01-07T15:33:10',
    ( '' ),
    ( '' ),
    'SwSTEP 2.0',
    'SolidWorks 2016',
    '' );
FILE_SCHEMA (( 'CONFIG_CONTROL_DESIGN' ));
ENDSEC;

DATA;
#1 = LOCAL_TIME ( 10, 33, 10.00000000000000000, #119 ) ;
#2 = SECURITY_CLASSIFICATION_LEVEL ( 'unclassified' ) ;
#3 = APPROVAL_STATUS ( 'not_yet_approved' ) ;
#4 = EDGE_CURVE ( 'NONE', #162, #104, #27, .T. ) ;
#5 = LOCAL_TIME ( 10, 33, 10.00000000000000000, #153 ) ;
#6 = COORDINATED_UNIVERSAL_TIME_OFFSET ( 5, 0, .BEHIND. ) ;
#7 = APPROVAL ( #39, 'UNSPECIFIED' ) ;
#8 = APPROVAL_PERSON_ORGANIZATION ( #48, #166, #150 ) ;
#9 = FACE_OUTER_BOUND ( 'NONE', #136, .T. ) ;
#10 = CALENDAR_DATE ( 2019, 7, 1 ) ;
#11 = ADVANCED_BREP_SHAPE_REPRESENTATION ( 'Web Model 45570_45570', ( #37, #93 ), #159 ) ;
#12 = LOCAL_TIME ( 10, 33, 10.00000000000000000, #135 ) ;
#13 = DIRECTION ( 'NONE',  ( -0.0000000000000000000, -0.0000000000000000000, -1.000000000000000000 ) ) ;
#14 = EDGE_CURVE ( 'NONE', #173, #107, #54, .T. ) ;
#15 = DIRECTION ( 'NONE',  ( -0.0000000000000000000, -0.0000000000000000000, -1.000000000000000000 ) ) ;
#16 = DIRECTION ( 'NONE',  ( 1.000000000000000000, 0.0000000000000000000, -0.0000000000000000000 ) ) ;
#17 = DIRECTION ( 'NONE',  ( 0.0000000000000000000, 0.0000000000000000000, 1.000000000000000000 ) ) ;
#18 = PRODUCT_RELATED_PRODUCT_CATEGORY ( 'detail', '', ( #158 ) ) ;
#19 = APPLICATION_CONTEXT ( 'configuration controlled 3d designs of mechanical parts and assemblies' ) ;
#20 = DIRECTION ( 'NONE',  ( 1.000000000000000000, 0.0000000000000000000, 0.0000000000000000000 ) ) ;
#21 = FACE_OUTER_BOUND ( 'NONE', #102, .T. ) ;
#22 = CYLINDRICAL_SURFACE ( 'NONE', #64, 20.00000000000000000 ) ;
#23 = CARTESIAN_POINT ( 'NONE',  ( -20.00000000000000000, 0.0000000000000000000, -2.000000000000000000 ) ) ;
#24 = CARTESIAN_POINT ( 'NONE',  ( 0.0000000000000000000, 0.0000000000000000000, 2.000000000000000000 ) ) ;
#25 = DIRECTION ( 'NONE',  ( 1.000000000000000000, 0.0000000000000000000, 0.0000000000000000000 ) ) ;
#26 = CC_DESIGN_DATE_AND_TIME_ASSIGNMENT ( #117, #100, ( #44 ) ) ;
#27 = CIRCLE ( 'NONE', #47, 20.00000000000000000 ) ;
#28 = ADVANCED_FACE ( 'NONE', ( #61 ), #22, .T. ) ;
#29 = PERSON_AND_ORGANIZATION_ROLE ( 'design_owner' ) ;
#30 = ORIENTED_EDGE ( 'NONE', *, *, #125, .F. ) ;
#31 = LINE ( 'NONE', #124, #57 ) ;
#32 = CARTESIAN_POINT ( 'NONE',  ( 20.00000000000000000, 2.449293598294706500E-015, -2.000000000000000000 ) ) ;
#33 = CARTESIAN_POINT ( 'NONE',  ( 0.0000000000000000000, 0.0000000000000000000, -2.000000000000000000 ) ) ;
#34 = PERSON_AND_ORGANIZATION ( #106, #170 ) ;
#35 = DIRECTION ( 'NONE',  ( 1.000000000000000000, 0.0000000000000000000, -0.0000000000000000000 ) ) ;
#36 = DIRECTION ( 'NONE',  ( 0.0000000000000000000, 0.0000000000000000000, 1.000000000000000000 ) ) ;
#37 = MANIFOLD_SOLID_BREP ( 'Boss-Extrude1', #67 ) ;
#38 = DATE_TIME_ROLE ( 'creation_date' ) ;
#39 = APPROVAL_STATUS ( 'not_yet_approved' ) ;
#40 = PRODUCT_DEFINITION ( 'UNKNOWN', '', #43, #144 ) ;
#41 = APPROVAL_DATE_TIME ( #112, #166 ) ;
#42 = PERSON_AND_ORGANIZATION ( #106, #170 ) ;
#43 = PRODUCT_DEFINITION_FORMATION_WITH_SPECIFIED_SOURCE ( 'ANY', '', #158, .NOT_KNOWN. ) ;
#44 = SECURITY_CLASSIFICATION ( '', '', #2 ) ;
#45 = EDGE_CURVE ( 'NONE', #104, #173, #31, .T. ) ;
#46 = ORIENTED_EDGE ( 'NONE', *, *, #151, .T. ) ;
#47 = AXIS2_PLACEMENT_3D ( 'NONE', #24, #137, #50 ) ;
#48 = PERSON_AND_ORGANIZATION ( #106, #170 ) ;
#49 = CIRCLE ( 'NONE', #76, 20.00000000000000000 ) ;
#50 = DIRECTION ( 'NONE',  ( 1.000000000000000000, 0.0000000000000000000, 0.0000000000000000000 ) ) ;
#51 = DIRECTION ( 'NONE',  ( -0.0000000000000000000, -0.0000000000000000000, -1.000000000000000000 ) ) ;
#52 = LINE ( 'NONE', #69, #63 ) ;
#53 = CARTESIAN_POINT ( 'NONE',  ( 0.0000000000000000000, 0.0000000000000000000, 2.000000000000000000 ) ) ;
#54 = CIRCLE ( 'NONE', #58, 20.00000000000000000 ) ;
#55 = APPROVAL_STATUS ( 'not_yet_approved' ) ;
#56 = AXIS2_PLACEMENT_3D ( 'NONE', #126, #175, #25 ) ;
#57 = VECTOR ( 'NONE', #174, 1000.000000000000000 ) ;
#58 = AXIS2_PLACEMENT_3D ( 'NONE', #33, #36, #147 ) ;
#59 = CALENDAR_DATE ( 2019, 7, 1 ) ;
#60 = ORIENTED_EDGE ( 'NONE', *, *, #125, .T. ) ;
#61 = FACE_OUTER_BOUND ( 'NONE', #154, .T. ) ;
#62 = CC_DESIGN_APPROVAL ( #7, ( #44 ) ) ;
#63 = VECTOR ( 'NONE', #15, 1000.000000000000000 ) ;
#64 = AXIS2_PLACEMENT_3D ( 'NONE', #77, #51, #95 ) ;
#65 = PERSON_AND_ORGANIZATION ( #106, #170 ) ;
#66 =( LENGTH_UNIT ( ) NAMED_UNIT ( * ) SI_UNIT ( .MILLI., .METRE. ) );
#67 = CLOSED_SHELL ( 'NONE', ( #28, #148, #134, #165 ) ) ;
#68 =( NAMED_UNIT ( * ) SI_UNIT ( $, .STERADIAN. ) SOLID_ANGLE_UNIT ( ) );
#69 = CARTESIAN_POINT ( 'NONE',  ( 20.00000000000000000, 2.449293598294706500E-015, 2.000000000000000000 ) ) ;
#70 = AXIS2_PLACEMENT_3D ( 'NONE', #171, #13, #97 ) ;
#71 = CALENDAR_DATE ( 2019, 7, 1 ) ;
#72 = CC_DESIGN_APPROVAL ( #74, ( #40 ) ) ;
#73 = CALENDAR_DATE ( 2019, 7, 1 ) ;
#74 = APPROVAL ( #55, 'UNSPECIFIED' ) ;
#75 = SHAPE_DEFINITION_REPRESENTATION ( #146, #11 ) ;
#76 = AXIS2_PLACEMENT_3D ( 'NONE', #164, #17, #115 ) ;
#77 = CARTESIAN_POINT ( 'NONE',  ( 0.0000000000000000000, 0.0000000000000000000, 2.000000000000000000 ) ) ;
#78 = CARTESIAN_POINT ( 'NONE',  ( 0.0000000000000000000, 0.0000000000000000000, -2.000000000000000000 ) ) ;
#79 = DATE_AND_TIME ( #10, #1 ) ;
#80 = ORIENTED_EDGE ( 'NONE', *, *, #14, .F. ) ;
#81 = DIRECTION ( 'NONE',  ( 0.0000000000000000000, 0.0000000000000000000, 1.000000000000000000 ) ) ;
#82 = CC_DESIGN_SECURITY_CLASSIFICATION ( #44, ( #43 ) ) ;
#83 = COORDINATED_UNIVERSAL_TIME_OFFSET ( 5, 0, .BEHIND. ) ;
#84 = APPLICATION_CONTEXT ( 'configuration controlled 3d designs of mechanical parts and assemblies' ) ;
#85 = CC_DESIGN_PERSON_AND_ORGANIZATION_ASSIGNMENT ( #105, #29, ( #158 ) ) ;
#86 = PERSON_AND_ORGANIZATION ( #106, #170 ) ;
#87 = ORIENTED_EDGE ( 'NONE', *, *, #132, .T. ) ;
#88 = CC_DESIGN_DATE_AND_TIME_ASSIGNMENT ( #79, #38, ( #40 ) ) ;
#89 = AXIS2_PLACEMENT_3D ( 'NONE', #78, #172, #16 ) ;
#90 = FACE_OUTER_BOUND ( 'NONE', #130, .T. ) ;
#91 = CC_DESIGN_APPROVAL ( #166, ( #43 ) ) ;
#92 = CIRCLE ( 'NONE', #56, 20.00000000000000000 ) ;
#93 = AXIS2_PLACEMENT_3D ( 'NONE', #94, #81, #20 ) ;
#94 = CARTESIAN_POINT ( 'NONE',  ( 0.0000000000000000000, 0.0000000000000000000, 0.0000000000000000000 ) ) ;
#95 = DIRECTION ( 'NONE',  ( -1.000000000000000000, 0.0000000000000000000, 0.0000000000000000000 ) ) ;
#96 = CARTESIAN_POINT ( 'NONE',  ( 20.00000000000000000, 2.449293598294706500E-015, 2.000000000000000000 ) ) ;
#97 = DIRECTION ( 'NONE',  ( -1.000000000000000000, 0.0000000000000000000, 0.0000000000000000000 ) ) ;
#98 = CC_DESIGN_PERSON_AND_ORGANIZATION_ASSIGNMENT ( #65, #116, ( #43 ) ) ;
#99 = APPROVAL_ROLE ( '' ) ;
#100 = DATE_TIME_ROLE ( 'classification_date' ) ;
#101 = CALENDAR_DATE ( 2019, 7, 1 ) ;
#102 = EDGE_LOOP ( 'NONE', ( #30, #122, #120, #109 ) ) ;
#103 = LOCAL_TIME ( 10, 33, 10.00000000000000000, #6 ) ;
#104 = VERTEX_POINT ( 'NONE', #163 ) ;
#105 = PERSON_AND_ORGANIZATION ( #106, #170 ) ;
#106 = PERSON ( 'UNSPECIFIED', 'UNSPECIFIED', 'UNSPECIFIED', ('UNSPECIFIED'), ('UNSPECIFIED'), ('UNSPECIFIED') ) ;
#107 = VERTEX_POINT ( 'NONE', #32 ) ;
#108 = APPROVAL_DATE_TIME ( #141, #74 ) ;
#109 = ORIENTED_EDGE ( 'NONE', *, *, #14, .T. ) ;
#110 = APPROVAL_PERSON_ORGANIZATION ( #34, #7, #99 ) ;
#111 = PLANE ( 'NONE',  #89 ) ;
#112 = DATE_AND_TIME ( #101, #12 ) ;
#113 = PLANE ( 'NONE',  #143 ) ;
#114 =( NAMED_UNIT ( * ) PLANE_ANGLE_UNIT ( ) SI_UNIT ( $, .RADIAN. ) );
#115 = DIRECTION ( 'NONE',  ( 1.000000000000000000, 0.0000000000000000000, 0.0000000000000000000 ) ) ;
#116 = PERSON_AND_ORGANIZATION_ROLE ( 'creator' ) ;
#117 = DATE_AND_TIME ( #71, #103 ) ;
#118 = APPROVAL_DATE_TIME ( #138, #7 ) ;
#119 = COORDINATED_UNIVERSAL_TIME_OFFSET ( 5, 0, .BEHIND. ) ;
#120 = ORIENTED_EDGE ( 'NONE', *, *, #45, .T. ) ;
#121 = PERSON_AND_ORGANIZATION ( #106, #170 ) ;
#122 = ORIENTED_EDGE ( 'NONE', *, *, #132, .F. ) ;
#123 = CC_DESIGN_PERSON_AND_ORGANIZATION_ASSIGNMENT ( #161, #140, ( #44 ) ) ;
#124 = CARTESIAN_POINT ( 'NONE',  ( -20.00000000000000000, 0.0000000000000000000, 2.000000000000000000 ) ) ;
#125 = EDGE_CURVE ( 'NONE', #162, #107, #52, .T. ) ;
#126 = CARTESIAN_POINT ( 'NONE',  ( 0.0000000000000000000, 0.0000000000000000000, 2.000000000000000000 ) ) ;
#127 = APPLICATION_PROTOCOL_DEFINITION ( 'international standard', 'config_control_design', 1994, #19 ) ;
#128 = MECHANICAL_CONTEXT ( 'NONE', #84, 'mechanical' ) ;
#129 = ORIENTED_EDGE ( 'NONE', *, *, #4, .T. ) ;
#130 = EDGE_LOOP ( 'NONE', ( #80, #156 ) ) ;
#131 = CC_DESIGN_PERSON_AND_ORGANIZATION_ASSIGNMENT ( #42, #167, ( #43 ) ) ;
#132 = EDGE_CURVE ( 'NONE', #104, #162, #92, .T. ) ;
#133 = DIRECTION ( 'NONE',  ( 0.0000000000000000000, 0.0000000000000000000, 1.000000000000000000 ) ) ;
#134 = ADVANCED_FACE ( 'NONE', ( #9 ), #113, .T. ) ;
#135 = COORDINATED_UNIVERSAL_TIME_OFFSET ( 5, 0, .BEHIND. ) ;
#136 = EDGE_LOOP ( 'NONE', ( #87, #129 ) ) ;
#137 = DIRECTION ( 'NONE',  ( 0.0000000000000000000, 0.0000000000000000000, 1.000000000000000000 ) ) ;
#138 = DATE_AND_TIME ( #59, #149 ) ;
#139 = APPLICATION_PROTOCOL_DEFINITION ( 'international standard', 'config_control_design', 1994, #84 ) ;
#140 = PERSON_AND_ORGANIZATION_ROLE ( 'classification_officer' ) ;
#141 = DATE_AND_TIME ( #73, #5 ) ;
#142 = ORIENTED_EDGE ( 'NONE', *, *, #45, .F. ) ;
#143 = AXIS2_PLACEMENT_3D ( 'NONE', #53, #133, #35 ) ;
#144 = DESIGN_CONTEXT ( 'detailed design', #19, 'design' ) ;
#145 = APPROVAL_PERSON_ORGANIZATION ( #121, #74, #169 ) ;
#146 = PRODUCT_DEFINITION_SHAPE ( 'NONE', 'NONE',  #40 ) ;
#147 = DIRECTION ( 'NONE',  ( 1.000000000000000000, 0.0000000000000000000, 0.0000000000000000000 ) ) ;
#148 = ADVANCED_FACE ( 'NONE', ( #21 ), #160, .T. ) ;
#149 = LOCAL_TIME ( 10, 33, 10.00000000000000000, #83 ) ;
#150 = APPROVAL_ROLE ( '' ) ;
#151 = EDGE_CURVE ( 'NONE', #107, #173, #49, .T. ) ;
#152 = PERSON_AND_ORGANIZATION_ROLE ( 'creator' ) ;
#153 = COORDINATED_UNIVERSAL_TIME_OFFSET ( 5, 0, .BEHIND. ) ;
#154 = EDGE_LOOP ( 'NONE', ( #168, #60, #46, #142 ) ) ;
#155 = CC_DESIGN_PERSON_AND_ORGANIZATION_ASSIGNMENT ( #86, #152, ( #40 ) ) ;
#156 = ORIENTED_EDGE ( 'NONE', *, *, #151, .F. ) ;
#157 = UNCERTAINTY_MEASURE_WITH_UNIT (LENGTH_MEASURE( 1.000000000000000100E-005 ), #66, 'distance_accuracy_value', 'NONE');
#158 = PRODUCT ( 'Web Model 45570_45570', 'Web Model 45570_45570', '', ( #128 ) ) ;
#159 =( GEOMETRIC_REPRESENTATION_CONTEXT ( 3 ) GLOBAL_UNCERTAINTY_ASSIGNED_CONTEXT ( ( #157 ) ) GLOBAL_UNIT_ASSIGNED_CONTEXT ( ( #66, #114, #68 ) ) REPRESENTATION_CONTEXT ( 'NONE', 'WORKASPACE' ) );
#160 = CYLINDRICAL_SURFACE ( 'NONE', #70, 20.00000000000000000 ) ;
#161 = PERSON_AND_ORGANIZATION ( #106, #170 ) ;
#162 = VERTEX_POINT ( 'NONE', #96 ) ;
#163 = CARTESIAN_POINT ( 'NONE',  ( -20.00000000000000000, 0.0000000000000000000, 2.000000000000000000 ) ) ;
#164 = CARTESIAN_POINT ( 'NONE',  ( 0.0000000000000000000, 0.0000000000000000000, -2.000000000000000000 ) ) ;
#165 = ADVANCED_FACE ( 'NONE', ( #90 ), #111, .F. ) ;
#166 = APPROVAL ( #3, 'UNSPECIFIED' ) ;
#167 = PERSON_AND_ORGANIZATION_ROLE ( 'design_supplier' ) ;
#168 = ORIENTED_EDGE ( 'NONE', *, *, #4, .F. ) ;
#169 = APPROVAL_ROLE ( '' ) ;
#170 = ORGANIZATION ( 'UNSPECIFIED', 'UNSPECIFIED', '' ) ;
#171 = CARTESIAN_POINT ( 'NONE',  ( 0.0000000000000000000, 0.0000000000000000000, 2.000000000000000000 ) ) ;
#172 = DIRECTION ( 'NONE',  ( 0.0000000000000000000, 0.0000000000000000000, 1.000000000000000000 ) ) ;
#173 = VERTEX_POINT ( 'NONE', #23 ) ;
#174 = DIRECTION ( 'NONE',  ( -0.0000000000000000000, -0.0000000000000000000, -1.000000000000000000 ) ) ;
#175 = DIRECTION ( 'NONE',  ( 0.0000000000000000000, 0.0000000000000000000, 1.000000000000000000 ) ) ;
ENDSEC;
END-ISO-10303-21;
