ISO-10303-21;
HEADER;
FILE_DESCRIPTION (( 'STEP AP203' ),
    '1' );
FILE_NAME ('Web Model 31411_46670.step',
    '2017-04-10T17:51:14',
    ( '' ),
    ( '' ),
    'SwSTEP 2.0',
    'SolidWorks 2016',
    '' );
FILE_SCHEMA (( 'CONFIG_CONTROL_DESIGN' ));
ENDSEC;

DATA;
#1 = ORIENTED_EDGE ( 'NONE', *, *, #98, .T. ) ;
#2 = DESIGN_CONTEXT ( 'detailed design', #132, 'design' ) ;
#3 = DIRECTION ( 'NONE',  ( -1.826024711554533900E-016, 1.000000000000000000, -0.0000000000000000000 ) ) ;
#4 = DATE_TIME_ROLE ( 'classification_date' ) ;
#5 = CARTESIAN_POINT ( 'NONE',  ( 0.0000000000000000000, 0.0000000000000000000, 1.000000000000000000 ) ) ;
#6 = COORDINATED_UNIVERSAL_TIME_OFFSET ( 5, 0, .BEHIND. ) ;
#7 = CARTESIAN_POINT ( 'NONE',  ( -12.49999999999999800, 37.99999999999997900, 1.000000000000000000 ) ) ;
#8 = LOCAL_TIME ( 13, 51, 14.00000000000000000, #103 ) ;
#9 = AXIS2_PLACEMENT_3D ( 'NONE', #7, #197, #124 ) ;
#10 = CARTESIAN_POINT ( 'NONE',  ( -12.49999999999999800, 37.99999999999997900, -1.000000000000000000 ) ) ;
#11 = CC_DESIGN_APPROVAL ( #83, ( #123 ) ) ;
#12 = COORDINATED_UNIVERSAL_TIME_OFFSET ( 5, 0, .BEHIND. ) ;
#13 = DIRECTION ( 'NONE',  ( 1.000000000000000000, 0.0000000000000000000, 0.0000000000000000000 ) ) ;
#14 = CARTESIAN_POINT ( 'NONE',  ( 12.50000000000001600, -38.00000000000002100, 1.000000000000000000 ) ) ;
#15 = AXIS2_PLACEMENT_3D ( 'NONE', #34, #172, #19 ) ;
#16 = PLANE ( 'NONE',  #120 ) ;
#17 = APPROVAL_STATUS ( 'not_yet_approved' ) ;
#18 = APPROVAL_ROLE ( '' ) ;
#19 = DIRECTION ( 'NONE',  ( -1.369518533665900300E-016, 1.000000000000000000, 0.0000000000000000000 ) ) ;
#20 = VERTEX_POINT ( 'NONE', #142 ) ;
#21 = LOCAL_TIME ( 13, 51, 14.00000000000000000, #6 ) ;
#22 = ADVANCED_FACE ( 'NONE', ( #115 ), #52, .F. ) ;
#23 = PRODUCT_DEFINITION_FORMATION_WITH_SPECIFIED_SOURCE ( 'ANY', '', #119, .NOT_KNOWN. ) ;
#24 = CARTESIAN_POINT ( 'NONE',  ( 12.50000000000001600, -38.00000000000002100, 1.000000000000000000 ) ) ;
#25 = LOCAL_TIME ( 13, 51, 14.00000000000000000, #212 ) ;
#26 = APPROVAL_ROLE ( '' ) ;
#27 = EDGE_CURVE ( 'NONE', #20, #76, #101, .T. ) ;
#28 = VECTOR ( 'NONE', #156, 1000.000000000000000 ) ;
#29 = CALENDAR_DATE ( 2017, 10, 4 ) ;
#30 = DIRECTION ( 'NONE',  ( -0.0000000000000000000, 0.0000000000000000000, 1.000000000000000000 ) ) ;
#31 = DIRECTION ( 'NONE',  ( 0.0000000000000000000, 1.000000000000000000, 0.0000000000000000000 ) ) ;
#32 = DIRECTION ( 'NONE',  ( -0.0000000000000000000, -0.0000000000000000000, -1.000000000000000000 ) ) ;
#33 = LOCAL_TIME ( 13, 51, 14.00000000000000000, #12 ) ;
#34 = CARTESIAN_POINT ( 'NONE',  ( -12.49999999999999800, 37.99999999999997900, 1.000000000000000000 ) ) ;
#35 = FACE_OUTER_BOUND ( 'NONE', #70, .T. ) ;
#36 = PERSON_AND_ORGANIZATION ( #110, #44 ) ;
#37 = ORIENTED_EDGE ( 'NONE', *, *, #98, .F. ) ;
#38 = ORIENTED_EDGE ( 'NONE', *, *, #116, .T. ) ;
#39 = ADVANCED_FACE ( 'NONE', ( #208 ), #16, .T. ) ;
#40 = CC_DESIGN_APPROVAL ( #237, ( #23 ) ) ;
#41 = CARTESIAN_POINT ( 'NONE',  ( 12.50000000000000200, 37.99999999999997900, 1.000000000000000000 ) ) ;
#42 = APPROVAL_PERSON_ORGANIZATION ( #149, #176, #234 ) ;
#43 = CC_DESIGN_PERSON_AND_ORGANIZATION_ASSIGNMENT ( #163, #159, ( #186 ) ) ;
#44 = ORGANIZATION ( 'UNSPECIFIED', 'UNSPECIFIED', '' ) ;
#45 = DATE_AND_TIME ( #29, #8 ) ;
#46 = PLANE ( 'NONE',  #66 ) ;
#47 = DIRECTION ( 'NONE',  ( -0.0000000000000000000, -0.0000000000000000000, -1.000000000000000000 ) ) ;
#48 = DATE_AND_TIME ( #144, #33 ) ;
#49 = MANIFOLD_SOLID_BREP ( 'Boss-Extrude1', #51 ) ;
#50 = VERTEX_POINT ( 'NONE', #229 ) ;
#51 = CLOSED_SHELL ( 'NONE', ( #102, #22, #169, #187, #39, #85 ) ) ;
#52 = PLANE ( 'NONE',  #9 ) ;
#53 = PERSON_AND_ORGANIZATION ( #110, #44 ) ;
#54 = DIRECTION ( 'NONE',  ( 1.369518533665900300E-016, -1.000000000000000000, 0.0000000000000000000 ) ) ;
#55 = AXIS2_PLACEMENT_3D ( 'NONE', #94, #31, #230 ) ;
#56 = VECTOR ( 'NONE', #3, 1000.000000000000000 ) ;
#57 = DIRECTION ( 'NONE',  ( 1.000000000000000000, 0.0000000000000000000, 0.0000000000000000000 ) ) ;
#58 = LINE ( 'NONE', #192, #129 ) ;
#59 = DIRECTION ( 'NONE',  ( -0.0000000000000000000, -0.0000000000000000000, -1.000000000000000000 ) ) ;
#60 = PERSON_AND_ORGANIZATION ( #110, #44 ) ;
#61 = DIRECTION ( 'NONE',  ( -1.000000000000000000, -1.826024711554533900E-016, 0.0000000000000000000 ) ) ;
#62 = EDGE_CURVE ( 'NONE', #50, #20, #104, .T. ) ;
#63 = CARTESIAN_POINT ( 'NONE',  ( -12.49999999999998900, -38.00000000000002100, 1.000000000000000000 ) ) ;
#64 = CARTESIAN_POINT ( 'NONE',  ( 12.50000000000000200, 37.99999999999997900, 1.000000000000000000 ) ) ;
#65 = COORDINATED_UNIVERSAL_TIME_OFFSET ( 5, 0, .BEHIND. ) ;
#66 = AXIS2_PLACEMENT_3D ( 'NONE', #64, #61, #174 ) ;
#67 = DIRECTION ( 'NONE',  ( -0.0000000000000000000, 0.0000000000000000000, 1.000000000000000000 ) ) ;
#68 = ORIENTED_EDGE ( 'NONE', *, *, #109, .T. ) ;
#69 = PERSON_AND_ORGANIZATION ( #110, #44 ) ;
#70 = EDGE_LOOP ( 'NONE', ( #148, #117, #121, #38 ) ) ;
#71 = APPROVAL_PERSON_ORGANIZATION ( #60, #83, #18 ) ;
#72 = EDGE_CURVE ( 'NONE', #107, #50, #233, .T. ) ;
#73 = CARTESIAN_POINT ( 'NONE',  ( 12.50000000000001600, -38.00000000000002100, -1.000000000000000000 ) ) ;
#74 = ORIENTED_EDGE ( 'NONE', *, *, #109, .F. ) ;
#75 = CC_DESIGN_PERSON_AND_ORGANIZATION_ASSIGNMENT ( #36, #79, ( #23 ) ) ;
#76 = VERTEX_POINT ( 'NONE', #10 ) ;
#77 = VECTOR ( 'NONE', #137, 1000.000000000000000 ) ;
#78 = EDGE_CURVE ( 'NONE', #92, #157, #139, .T. ) ;
#79 = PERSON_AND_ORGANIZATION_ROLE ( 'design_supplier' ) ;
#80 = ORIENTED_EDGE ( 'NONE', *, *, #99, .T. ) ;
#81 = EDGE_LOOP ( 'NONE', ( #162, #150, #175, #220 ) ) ;
#82 = ORIENTED_EDGE ( 'NONE', *, *, #91, .F. ) ;
#83 = APPROVAL ( #118, 'UNSPECIFIED' ) ;
#84 = LINE ( 'NONE', #86, #222 ) ;
#85 = ADVANCED_FACE ( 'NONE', ( #223 ), #161, .F. ) ;
#86 = CARTESIAN_POINT ( 'NONE',  ( -12.49999999999999800, 37.99999999999997900, 1.000000000000000000 ) ) ;
#87 = LINE ( 'NONE', #147, #56 ) ;
#88 = VECTOR ( 'NONE', #177, 1000.000000000000000 ) ;
#89 = ORIENTED_EDGE ( 'NONE', *, *, #27, .T. ) ;
#90 = EDGE_CURVE ( 'NONE', #76, #194, #58, .T. ) ;
#91 = EDGE_CURVE ( 'NONE', #171, #20, #87, .T. ) ;
#92 = VERTEX_POINT ( 'NONE', #128 ) ;
#93 = APPROVAL_PERSON_ORGANIZATION ( #215, #237, #26 ) ;
#94 = CARTESIAN_POINT ( 'NONE',  ( -12.49999999999998900, -38.00000000000002100, 1.000000000000000000 ) ) ;
#95 = DIRECTION ( 'NONE',  ( 1.369518533665900300E-016, -1.000000000000000000, 0.0000000000000000000 ) ) ;
#96 = CARTESIAN_POINT ( 'NONE',  ( -12.49999999999999800, 37.99999999999997900, 1.000000000000000000 ) ) ;
#97 = PERSON_AND_ORGANIZATION_ROLE ( 'design_owner' ) ;
#98 = EDGE_CURVE ( 'NONE', #157, #107, #188, .T. ) ;
#99 = EDGE_CURVE ( 'NONE', #50, #92, #210, .T. ) ;
#100 = ORIENTED_EDGE ( 'NONE', *, *, #108, .T. ) ;
#101 = LINE ( 'NONE', #217, #193 ) ;
#102 = ADVANCED_FACE ( 'NONE', ( #170 ), #46, .F. ) ;
#103 = COORDINATED_UNIVERSAL_TIME_OFFSET ( 5, 0, .BEHIND. ) ;
#104 = LINE ( 'NONE', #166, #165 ) ;
#105 = PERSON_AND_ORGANIZATION_ROLE ( 'classification_officer' ) ;
#106 = CARTESIAN_POINT ( 'NONE',  ( -12.49999999999998900, -38.00000000000002100, -1.000000000000000000 ) ) ;
#107 = VERTEX_POINT ( 'NONE', #24 ) ;
#108 = EDGE_CURVE ( 'NONE', #157, #194, #235, .T. ) ;
#109 = EDGE_CURVE ( 'NONE', #194, #171, #196, .T. ) ;
#110 = PERSON ( 'UNSPECIFIED', 'UNSPECIFIED', 'UNSPECIFIED', ('UNSPECIFIED'), ('UNSPECIFIED'), ('UNSPECIFIED') ) ;
#111 = VECTOR ( 'NONE', #59, 1000.000000000000000 ) ;
#112 =( LENGTH_UNIT ( ) NAMED_UNIT ( * ) SI_UNIT ( .MILLI., .METRE. ) );
#113 = CARTESIAN_POINT ( 'NONE',  ( -12.49999999999998900, -38.00000000000002100, -1.000000000000000000 ) ) ;
#114 = ORIENTED_EDGE ( 'NONE', *, *, #27, .F. ) ;
#115 = FACE_OUTER_BOUND ( 'NONE', #204, .T. ) ;
#116 = EDGE_CURVE ( 'NONE', #92, #76, #84, .T. ) ;
#117 = ORIENTED_EDGE ( 'NONE', *, *, #108, .F. ) ;
#118 = APPROVAL_STATUS ( 'not_yet_approved' ) ;
#119 = PRODUCT ( 'Web Model 31411_46670', 'Web Model 31411_46670', '', ( #200 ) ) ;
#120 = AXIS2_PLACEMENT_3D ( 'NONE', #5, #30, #57 ) ;
#121 = ORIENTED_EDGE ( 'NONE', *, *, #78, .F. ) ;
#122 = APPLICATION_CONTEXT ( 'configuration controlled 3d designs of mechanical parts and assemblies' ) ;
#123 = SECURITY_CLASSIFICATION ( '', '', #198 ) ;
#124 = DIRECTION ( 'NONE',  ( 0.0000000000000000000, -0.0000000000000000000, -1.000000000000000000 ) ) ;
#125 = CC_DESIGN_DATE_AND_TIME_ASSIGNMENT ( #231, #141, ( #186 ) ) ;
#126 = PLANE ( 'NONE',  #55 ) ;
#127 = PRODUCT_DEFINITION_SHAPE ( 'NONE', 'NONE',  #186 ) ;
#128 = CARTESIAN_POINT ( 'NONE',  ( -12.49999999999999800, 37.99999999999997900, 1.000000000000000000 ) ) ;
#129 = VECTOR ( 'NONE', #54, 1000.000000000000000 ) ;
#130 = PLANE ( 'NONE',  #15 ) ;
#131 = VECTOR ( 'NONE', #95, 1000.000000000000000 ) ;
#132 = APPLICATION_CONTEXT ( 'configuration controlled 3d designs of mechanical parts and assemblies' ) ;
#133 = DATE_AND_TIME ( #158, #178 ) ;
#134 = DIRECTION ( 'NONE',  ( -1.000000000000000000, -0.0000000000000000000, -0.0000000000000000000 ) ) ;
#135 = UNCERTAINTY_MEASURE_WITH_UNIT (LENGTH_MEASURE( 1.000000000000000100E-005 ), #112, 'distance_accuracy_value', 'NONE');
#136 = SHAPE_DEFINITION_REPRESENTATION ( #127, #164 ) ;
#137 = DIRECTION ( 'NONE',  ( -1.000000000000000000, -0.0000000000000000000, -0.0000000000000000000 ) ) ;
#138 =( NAMED_UNIT ( * ) SI_UNIT ( $, .STERADIAN. ) SOLID_ANGLE_UNIT ( ) );
#139 = LINE ( 'NONE', #96, #131 ) ;
#140 = EDGE_LOOP ( 'NONE', ( #195, #80, #221, #1 ) ) ;
#141 = DATE_TIME_ROLE ( 'creation_date' ) ;
#142 = CARTESIAN_POINT ( 'NONE',  ( 12.50000000000000200, 37.99999999999997900, -1.000000000000000000 ) ) ;
#143 = CALENDAR_DATE ( 2017, 10, 4 ) ;
#144 = CALENDAR_DATE ( 2017, 10, 4 ) ;
#145 = ORIENTED_EDGE ( 'NONE', *, *, #99, .F. ) ;
#146 = PRODUCT_RELATED_PRODUCT_CATEGORY ( 'detail', '', ( #119 ) ) ;
#147 = CARTESIAN_POINT ( 'NONE',  ( 12.50000000000000200, 37.99999999999997900, -1.000000000000000000 ) ) ;
#148 = ORIENTED_EDGE ( 'NONE', *, *, #90, .T. ) ;
#149 = PERSON_AND_ORGANIZATION ( #110, #44 ) ;
#150 = ORIENTED_EDGE ( 'NONE', *, *, #62, .F. ) ;
#151 = ORIENTED_EDGE ( 'NONE', *, *, #116, .F. ) ;
#152 = CALENDAR_DATE ( 2017, 10, 4 ) ;
#153 = PERSON_AND_ORGANIZATION_ROLE ( 'creator' ) ;
#154 = CC_DESIGN_PERSON_AND_ORGANIZATION_ASSIGNMENT ( #216, #153, ( #23 ) ) ;
#155 = EDGE_LOOP ( 'NONE', ( #68, #179, #37, #100 ) ) ;
#156 = DIRECTION ( 'NONE',  ( 1.000000000000000000, 0.0000000000000000000, 0.0000000000000000000 ) ) ;
#157 = VERTEX_POINT ( 'NONE', #63 ) ;
#158 = CALENDAR_DATE ( 2017, 10, 4 ) ;
#159 = PERSON_AND_ORGANIZATION_ROLE ( 'creator' ) ;
#160 = CC_DESIGN_PERSON_AND_ORGANIZATION_ASSIGNMENT ( #53, #97, ( #119 ) ) ;
#161 = PLANE ( 'NONE',  #232 ) ;
#162 = ORIENTED_EDGE ( 'NONE', *, *, #91, .T. ) ;
#163 = PERSON_AND_ORGANIZATION ( #110, #44 ) ;
#164 = ADVANCED_BREP_SHAPE_REPRESENTATION ( 'Web Model 31411_46670', ( #49, #213 ), #211 ) ;
#165 = VECTOR ( 'NONE', #32, 1000.000000000000000 ) ;
#166 = CARTESIAN_POINT ( 'NONE',  ( 12.50000000000000200, 37.99999999999997900, 1.000000000000000000 ) ) ;
#167 = CC_DESIGN_PERSON_AND_ORGANIZATION_ASSIGNMENT ( #69, #105, ( #123 ) ) ;
#168 = CARTESIAN_POINT ( 'NONE',  ( 0.0000000000000000000, 0.0000000000000000000, -1.000000000000000000 ) ) ;
#169 = ADVANCED_FACE ( 'NONE', ( #35 ), #130, .F. ) ;
#170 = FACE_OUTER_BOUND ( 'NONE', #81, .T. ) ;
#171 = VERTEX_POINT ( 'NONE', #73 ) ;
#172 = DIRECTION ( 'NONE',  ( 1.000000000000000000, 1.369518533665900300E-016, -0.0000000000000000000 ) ) ;
#173 = VECTOR ( 'NONE', #13, 1000.000000000000000 ) ;
#174 = DIRECTION ( 'NONE',  ( 1.826024711554533900E-016, -1.000000000000000000, 0.0000000000000000000 ) ) ;
#175 = ORIENTED_EDGE ( 'NONE', *, *, #72, .F. ) ;
#176 = APPROVAL ( #209, 'UNSPECIFIED' ) ;
#177 = DIRECTION ( 'NONE',  ( -0.0000000000000000000, -0.0000000000000000000, -1.000000000000000000 ) ) ;
#178 = LOCAL_TIME ( 13, 51, 14.00000000000000000, #65 ) ;
#179 = ORIENTED_EDGE ( 'NONE', *, *, #228, .F. ) ;
#180 = CC_DESIGN_SECURITY_CLASSIFICATION ( #123, ( #23 ) ) ;
#181 = VECTOR ( 'NONE', #189, 1000.000000000000000 ) ;
#182 = DIRECTION ( 'NONE',  ( 1.000000000000000000, 0.0000000000000000000, 0.0000000000000000000 ) ) ;
#183 = APPLICATION_PROTOCOL_DEFINITION ( 'international standard', 'config_control_design', 1994, #132 ) ;
#184 = APPROVAL_DATE_TIME ( #45, #237 ) ;
#185 = APPROVAL_DATE_TIME ( #48, #83 ) ;
#186 = PRODUCT_DEFINITION ( 'UNKNOWN', '', #23, #2 ) ;
#187 = ADVANCED_FACE ( 'NONE', ( #207 ), #126, .F. ) ;
#188 = LINE ( 'NONE', #226, #173 ) ;
#189 = DIRECTION ( 'NONE',  ( -1.826024711554533900E-016, 1.000000000000000000, -0.0000000000000000000 ) ) ;
#190 = ORIENTED_EDGE ( 'NONE', *, *, #62, .T. ) ;
#191 = DIRECTION ( 'NONE',  ( 1.000000000000000000, 0.0000000000000000000, 0.0000000000000000000 ) ) ;
#192 = CARTESIAN_POINT ( 'NONE',  ( -12.49999999999999800, 37.99999999999997900, -1.000000000000000000 ) ) ;
#193 = VECTOR ( 'NONE', #134, 1000.000000000000000 ) ;
#194 = VERTEX_POINT ( 'NONE', #113 ) ;
#195 = ORIENTED_EDGE ( 'NONE', *, *, #72, .T. ) ;
#196 = LINE ( 'NONE', #106, #28 ) ;
#197 = DIRECTION ( 'NONE',  ( 0.0000000000000000000, -1.000000000000000000, 0.0000000000000000000 ) ) ;
#198 = SECURITY_CLASSIFICATION_LEVEL ( 'unclassified' ) ;
#199 = DIRECTION ( 'NONE',  ( 0.0000000000000000000, 0.0000000000000000000, 1.000000000000000000 ) ) ;
#200 = MECHANICAL_CONTEXT ( 'NONE', #122, 'mechanical' ) ;
#201 = LINE ( 'NONE', #14, #111 ) ;
#202 = APPLICATION_PROTOCOL_DEFINITION ( 'international standard', 'config_control_design', 1994, #122 ) ;
#203 = CC_DESIGN_APPROVAL ( #176, ( #186 ) ) ;
#204 = EDGE_LOOP ( 'NONE', ( #89, #151, #145, #190 ) ) ;
#205 = ORIENTED_EDGE ( 'NONE', *, *, #90, .F. ) ;
#206 = CC_DESIGN_DATE_AND_TIME_ASSIGNMENT ( #224, #4, ( #123 ) ) ;
#207 = FACE_OUTER_BOUND ( 'NONE', #155, .T. ) ;
#208 = FACE_OUTER_BOUND ( 'NONE', #140, .T. ) ;
#209 = APPROVAL_STATUS ( 'not_yet_approved' ) ;
#210 = LINE ( 'NONE', #227, #77 ) ;
#211 =( GEOMETRIC_REPRESENTATION_CONTEXT ( 3 ) GLOBAL_UNCERTAINTY_ASSIGNED_CONTEXT ( ( #135 ) ) GLOBAL_UNIT_ASSIGNED_CONTEXT ( ( #112, #236, #138 ) ) REPRESENTATION_CONTEXT ( 'NONE', 'WORKASPACE' ) );
#212 = COORDINATED_UNIVERSAL_TIME_OFFSET ( 5, 0, .BEHIND. ) ;
#213 = AXIS2_PLACEMENT_3D ( 'NONE', #218, #199, #182 ) ;
#214 = APPROVAL_DATE_TIME ( #133, #176 ) ;
#215 = PERSON_AND_ORGANIZATION ( #110, #44 ) ;
#216 = PERSON_AND_ORGANIZATION ( #110, #44 ) ;
#217 = CARTESIAN_POINT ( 'NONE',  ( -12.49999999999999800, 37.99999999999997900, -1.000000000000000000 ) ) ;
#218 = CARTESIAN_POINT ( 'NONE',  ( 0.0000000000000000000, 0.0000000000000000000, 0.0000000000000000000 ) ) ;
#219 = EDGE_LOOP ( 'NONE', ( #82, #74, #205, #114 ) ) ;
#220 = ORIENTED_EDGE ( 'NONE', *, *, #228, .T. ) ;
#221 = ORIENTED_EDGE ( 'NONE', *, *, #78, .T. ) ;
#222 = VECTOR ( 'NONE', #47, 1000.000000000000000 ) ;
#223 = FACE_OUTER_BOUND ( 'NONE', #219, .T. ) ;
#224 = DATE_AND_TIME ( #143, #25 ) ;
#225 = CARTESIAN_POINT ( 'NONE',  ( -12.49999999999998900, -38.00000000000002100, 1.000000000000000000 ) ) ;
#226 = CARTESIAN_POINT ( 'NONE',  ( -12.49999999999998900, -38.00000000000002100, 1.000000000000000000 ) ) ;
#227 = CARTESIAN_POINT ( 'NONE',  ( -12.49999999999999800, 37.99999999999997900, 1.000000000000000000 ) ) ;
#228 = EDGE_CURVE ( 'NONE', #107, #171, #201, .T. ) ;
#229 = CARTESIAN_POINT ( 'NONE',  ( 12.50000000000000200, 37.99999999999997900, 1.000000000000000000 ) ) ;
#230 = DIRECTION ( 'NONE',  ( 0.0000000000000000000, -0.0000000000000000000, 1.000000000000000000 ) ) ;
#231 = DATE_AND_TIME ( #152, #21 ) ;
#232 = AXIS2_PLACEMENT_3D ( 'NONE', #168, #67, #191 ) ;
#233 = LINE ( 'NONE', #41, #181 ) ;
#234 = APPROVAL_ROLE ( '' ) ;
#235 = LINE ( 'NONE', #225, #88 ) ;
#236 =( NAMED_UNIT ( * ) PLANE_ANGLE_UNIT ( ) SI_UNIT ( $, .RADIAN. ) );
#237 = APPROVAL ( #17, 'UNSPECIFIED' ) ;
ENDSEC;
END-ISO-10303-21;
