ISO-10303-21;
HEADER;
FILE_DESCRIPTION (( 'STEP AP203' ),
    '1' );
FILE_NAME ('Web Model 68520.STEP',
    '2017-02-01T13:26:44',
    ( '' ),
    ( '' ),
    'SwSTEP 2.0',
    'SolidWorks 2016',
    '' );
FILE_SCHEMA (( 'CONFIG_CONTROL_DESIGN' ));
ENDSEC;

DATA;
#1 = PERSON_AND_ORGANIZATION ( #89, #74 ) ;
#2 = SHAPE_DEFINITION_REPRESENTATION ( #35, #86 ) ;
#3 = APPROVAL_ROLE ( '' ) ;
#4 = DIRECTION ( 'NONE',  ( 0.0000000000000000000, 0.0000000000000000000, 1.000000000000000000 ) ) ;
#5 = DIRECTION ( 'NONE',  ( 0.0000000000000000000, 0.0000000000000000000, 1.000000000000000000 ) ) ;
#6 = CC_DESIGN_PERSON_AND_ORGANIZATION_ASSIGNMENT ( #87, #168, ( #65 ) ) ;
#7 = DATE_AND_TIME ( #173, #66 ) ;
#8 = DESIGN_CONTEXT ( 'detailed design', #167, 'design' ) ;
#9 = LOCAL_TIME ( 8, 26, 44.00000000000000000, #25 ) ;
#10 = ORIENTED_EDGE ( 'NONE', *, *, #93, .T. ) ;
#11 = CC_DESIGN_APPROVAL ( #96, ( #132 ) ) ;
#12 = ORIENTED_EDGE ( 'NONE', *, *, #81, .F. ) ;
#13 = ADVANCED_FACE ( 'NONE', ( #50 ), #43, .F. ) ;
#14 = LOCAL_TIME ( 8, 26, 44.00000000000000000, #52 ) ;
#15 = PRODUCT_DEFINITION_FORMATION_WITH_SPECIFIED_SOURCE ( 'ANY', '', #160, .NOT_KNOWN. ) ;
#16 = DIRECTION ( 'NONE',  ( 0.0000000000000000000, 0.0000000000000000000, 1.000000000000000000 ) ) ;
#17 = ORIENTED_EDGE ( 'NONE', *, *, #81, .T. ) ;
#18 = DATE_AND_TIME ( #128, #133 ) ;
#19 = CARTESIAN_POINT ( 'NONE',  ( 0.0000000000000000000, 0.0000000000000000000, 0.0000000000000000000 ) ) ;
#20 = APPROVAL_STATUS ( 'not_yet_approved' ) ;
#21 = DIRECTION ( 'NONE',  ( 1.000000000000000000, 0.0000000000000000000, 0.0000000000000000000 ) ) ;
#22 = CARTESIAN_POINT ( 'NONE',  ( 0.0000000000000000000, 0.0000000000000000000, 2.000000000000000000 ) ) ;
#23 = ORIENTED_EDGE ( 'NONE', *, *, #172, .F. ) ;
#24 = CALENDAR_DATE ( 2017, 1, 2 ) ;
#25 = COORDINATED_UNIVERSAL_TIME_OFFSET ( 5, 0, .BEHIND. ) ;
#26 = APPROVAL ( #37, 'UNSPECIFIED' ) ;
#27 = ORIENTED_EDGE ( 'NONE', *, *, #135, .F. ) ;
#28 = DATE_AND_TIME ( #75, #9 ) ;
#29 = DIRECTION ( 'NONE',  ( 1.000000000000000000, 0.0000000000000000000, -0.0000000000000000000 ) ) ;
#30 = VERTEX_POINT ( 'NONE', #31 ) ;
#31 = CARTESIAN_POINT ( 'NONE',  ( 25.00000000000000000, 3.061616997868383000E-015, 0.0000000000000000000 ) ) ;
#32 = AXIS2_PLACEMENT_3D ( 'NONE', #33, #155, #80 ) ;
#33 = CARTESIAN_POINT ( 'NONE',  ( 0.0000000000000000000, 0.0000000000000000000, 2.000000000000000000 ) ) ;
#34 = LOCAL_TIME ( 8, 26, 44.00000000000000000, #137 ) ;
#35 = PRODUCT_DEFINITION_SHAPE ( 'NONE', 'NONE',  #65 ) ;
#36 = ORIENTED_EDGE ( 'NONE', *, *, #127, .T. ) ;
#37 = APPROVAL_STATUS ( 'not_yet_approved' ) ;
#38 = COORDINATED_UNIVERSAL_TIME_OFFSET ( 5, 0, .BEHIND. ) ;
#39 = VECTOR ( 'NONE', #175, 1000.000000000000000 ) ;
#40 = CYLINDRICAL_SURFACE ( 'NONE', #161, 25.00000000000000000 ) ;
#41 = AXIS2_PLACEMENT_3D ( 'NONE', #68, #57, #150 ) ;
#42 = FACE_OUTER_BOUND ( 'NONE', #71, .T. ) ;
#43 = PLANE ( 'NONE',  #149 ) ;
#44 = DIRECTION ( 'NONE',  ( 1.000000000000000000, 0.0000000000000000000, 0.0000000000000000000 ) ) ;
#45 = DIRECTION ( 'NONE',  ( -0.0000000000000000000, -0.0000000000000000000, -1.000000000000000000 ) ) ;
#46 = PLANE ( 'NONE',  #170 ) ;
#47 = APPROVAL_STATUS ( 'not_yet_approved' ) ;
#48 = LINE ( 'NONE', #164, #39 ) ;
#49 = DIRECTION ( 'NONE',  ( -0.0000000000000000000, -0.0000000000000000000, -1.000000000000000000 ) ) ;
#50 = FACE_OUTER_BOUND ( 'NONE', #107, .T. ) ;
#51 = CC_DESIGN_DATE_AND_TIME_ASSIGNMENT ( #102, #109, ( #65 ) ) ;
#52 = COORDINATED_UNIVERSAL_TIME_OFFSET ( 5, 0, .BEHIND. ) ;
#53 = CC_DESIGN_APPROVAL ( #26, ( #15 ) ) ;
#54 = CIRCLE ( 'NONE', #162, 25.00000000000000000 ) ;
#55 = PERSON_AND_ORGANIZATION ( #89, #74 ) ;
#56 = EDGE_LOOP ( 'NONE', ( #95, #23, #17, #131 ) ) ;
#57 = DIRECTION ( 'NONE',  ( -0.0000000000000000000, -0.0000000000000000000, -1.000000000000000000 ) ) ;
#58 = ORIENTED_EDGE ( 'NONE', *, *, #127, .F. ) ;
#59 = DIRECTION ( 'NONE',  ( 1.000000000000000000, 0.0000000000000000000, -0.0000000000000000000 ) ) ;
#60 = CC_DESIGN_PERSON_AND_ORGANIZATION_ASSIGNMENT ( #55, #119, ( #15 ) ) ;
#61 = CARTESIAN_POINT ( 'NONE',  ( 0.0000000000000000000, 0.0000000000000000000, 2.000000000000000000 ) ) ;
#62 = SECURITY_CLASSIFICATION_LEVEL ( 'unclassified' ) ;
#63 = APPLICATION_PROTOCOL_DEFINITION ( 'international standard', 'config_control_design', 1994, #167 ) ;
#64 = DIRECTION ( 'NONE',  ( 0.0000000000000000000, 0.0000000000000000000, 1.000000000000000000 ) ) ;
#65 = PRODUCT_DEFINITION ( 'UNKNOWN', '', #15, #8 ) ;
#66 = LOCAL_TIME ( 8, 26, 44.00000000000000000, #38 ) ;
#67 = ORIENTED_EDGE ( 'NONE', *, *, #72, .T. ) ;
#68 = CARTESIAN_POINT ( 'NONE',  ( 0.0000000000000000000, 0.0000000000000000000, 2.000000000000000000 ) ) ;
#69 = PERSON_AND_ORGANIZATION_ROLE ( 'classification_officer' ) ;
#70 = APPLICATION_PROTOCOL_DEFINITION ( 'international standard', 'config_control_design', 1994, #153 ) ;
#71 = EDGE_LOOP ( 'NONE', ( #110, #67, #36, #12 ) ) ;
#72 = EDGE_CURVE ( 'NONE', #121, #30, #130, .T. ) ;
#73 = FACE_OUTER_BOUND ( 'NONE', #126, .T. ) ;
#74 = ORGANIZATION ( 'UNSPECIFIED', 'UNSPECIFIED', '' ) ;
#75 = CALENDAR_DATE ( 2017, 1, 2 ) ;
#76 = CARTESIAN_POINT ( 'NONE',  ( 25.00000000000000000, 3.061616997868383000E-015, 2.000000000000000000 ) ) ;
#77 = CARTESIAN_POINT ( 'NONE',  ( 0.0000000000000000000, 0.0000000000000000000, 0.0000000000000000000 ) ) ;
#78 = CIRCLE ( 'NONE', #32, 25.00000000000000000 ) ;
#79 = PERSON_AND_ORGANIZATION ( #89, #74 ) ;
#80 = DIRECTION ( 'NONE',  ( 1.000000000000000000, 0.0000000000000000000, 0.0000000000000000000 ) ) ;
#81 = EDGE_CURVE ( 'NONE', #158, #100, #48, .T. ) ;
#82 = DIRECTION ( 'NONE',  ( 1.000000000000000000, 0.0000000000000000000, 0.0000000000000000000 ) ) ;
#83 = APPROVAL_ROLE ( '' ) ;
#84 = CARTESIAN_POINT ( 'NONE',  ( 0.0000000000000000000, 0.0000000000000000000, 0.0000000000000000000 ) ) ;
#85 = PERSON_AND_ORGANIZATION ( #89, #74 ) ;
#86 = ADVANCED_BREP_SHAPE_REPRESENTATION ( 'Web Model 68520', ( #136, #101 ), #145 ) ;
#87 = PERSON_AND_ORGANIZATION ( #89, #74 ) ;
#88 = CARTESIAN_POINT ( 'NONE',  ( -25.00000000000000000, 0.0000000000000000000, 2.000000000000000000 ) ) ;
#89 = PERSON ( 'UNSPECIFIED', 'UNSPECIFIED', 'UNSPECIFIED', ('UNSPECIFIED'), ('UNSPECIFIED'), ('UNSPECIFIED') ) ;
#90 = CARTESIAN_POINT ( 'NONE',  ( 25.00000000000000000, 3.061616997868383000E-015, 2.000000000000000000 ) ) ;
#91 = DATE_TIME_ROLE ( 'classification_date' ) ;
#92 =( NAMED_UNIT ( * ) PLANE_ANGLE_UNIT ( ) SI_UNIT ( $, .RADIAN. ) );
#93 = EDGE_CURVE ( 'NONE', #121, #158, #54, .T. ) ;
#94 = PERSON_AND_ORGANIZATION_ROLE ( 'design_owner' ) ;
#95 = ORIENTED_EDGE ( 'NONE', *, *, #72, .F. ) ;
#96 = APPROVAL ( #47, 'UNSPECIFIED' ) ;
#97 = PERSON_AND_ORGANIZATION ( #89, #74 ) ;
#98 = ADVANCED_FACE ( 'NONE', ( #73 ), #46, .T. ) ;
#99 = APPROVAL_PERSON_ORGANIZATION ( #97, #143, #157 ) ;
#100 = VERTEX_POINT ( 'NONE', #146 ) ;
#101 = AXIS2_PLACEMENT_3D ( 'NONE', #104, #64, #21 ) ;
#102 = DATE_AND_TIME ( #122, #34 ) ;
#103 = UNCERTAINTY_MEASURE_WITH_UNIT (LENGTH_MEASURE( 1.000000000000000100E-005 ), #108, 'distance_accuracy_value', 'NONE');
#104 = CARTESIAN_POINT ( 'NONE',  ( 0.0000000000000000000, 0.0000000000000000000, 0.0000000000000000000 ) ) ;
#105 = AXIS2_PLACEMENT_3D ( 'NONE', #84, #5, #82 ) ;
#106 =( NAMED_UNIT ( * ) SI_UNIT ( $, .STERADIAN. ) SOLID_ANGLE_UNIT ( ) );
#107 = EDGE_LOOP ( 'NONE', ( #27, #58 ) ) ;
#108 =( LENGTH_UNIT ( ) NAMED_UNIT ( * ) SI_UNIT ( .MILLI., .METRE. ) );
#109 = DATE_TIME_ROLE ( 'creation_date' ) ;
#110 = ORIENTED_EDGE ( 'NONE', *, *, #93, .F. ) ;
#111 = CC_DESIGN_SECURITY_CLASSIFICATION ( #132, ( #15 ) ) ;
#112 = CIRCLE ( 'NONE', #124, 25.00000000000000000 ) ;
#113 = CYLINDRICAL_SURFACE ( 'NONE', #41, 25.00000000000000000 ) ;
#114 = ADVANCED_FACE ( 'NONE', ( #154 ), #113, .T. ) ;
#115 = DIRECTION ( 'NONE',  ( 0.0000000000000000000, 0.0000000000000000000, 1.000000000000000000 ) ) ;
#116 = ORIENTED_EDGE ( 'NONE', *, *, #172, .T. ) ;
#117 = CC_DESIGN_PERSON_AND_ORGANIZATION_ASSIGNMENT ( #85, #139, ( #15 ) ) ;
#118 = PERSON_AND_ORGANIZATION ( #89, #74 ) ;
#119 = PERSON_AND_ORGANIZATION_ROLE ( 'design_supplier' ) ;
#120 = MECHANICAL_CONTEXT ( 'NONE', #153, 'mechanical' ) ;
#121 = VERTEX_POINT ( 'NONE', #90 ) ;
#122 = CALENDAR_DATE ( 2017, 1, 2 ) ;
#123 = CC_DESIGN_PERSON_AND_ORGANIZATION_ASSIGNMENT ( #142, #94, ( #160 ) ) ;
#124 = AXIS2_PLACEMENT_3D ( 'NONE', #19, #4, #125 ) ;
#125 = DIRECTION ( 'NONE',  ( 1.000000000000000000, 0.0000000000000000000, 0.0000000000000000000 ) ) ;
#126 = EDGE_LOOP ( 'NONE', ( #116, #10 ) ) ;
#127 = EDGE_CURVE ( 'NONE', #30, #100, #112, .T. ) ;
#128 = CALENDAR_DATE ( 2017, 1, 2 ) ;
#129 = APPROVAL_DATE_TIME ( #28, #96 ) ;
#130 = LINE ( 'NONE', #76, #165 ) ;
#131 = ORIENTED_EDGE ( 'NONE', *, *, #135, .T. ) ;
#132 = SECURITY_CLASSIFICATION ( '', '', #62 ) ;
#133 = LOCAL_TIME ( 8, 26, 44.00000000000000000, #140 ) ;
#134 = CLOSED_SHELL ( 'NONE', ( #174, #114, #98, #13 ) ) ;
#135 = EDGE_CURVE ( 'NONE', #100, #30, #169, .T. ) ;
#136 = MANIFOLD_SOLID_BREP ( 'Extrude1', #134 ) ;
#137 = COORDINATED_UNIVERSAL_TIME_OFFSET ( 5, 0, .BEHIND. ) ;
#138 = DIRECTION ( 'NONE',  ( -1.000000000000000000, 0.0000000000000000000, 0.0000000000000000000 ) ) ;
#139 = PERSON_AND_ORGANIZATION_ROLE ( 'creator' ) ;
#140 = COORDINATED_UNIVERSAL_TIME_OFFSET ( 5, 0, .BEHIND. ) ;
#141 = CC_DESIGN_PERSON_AND_ORGANIZATION_ASSIGNMENT ( #79, #69, ( #132 ) ) ;
#142 = PERSON_AND_ORGANIZATION ( #89, #74 ) ;
#143 = APPROVAL ( #20, 'UNSPECIFIED' ) ;
#144 = APPROVAL_DATE_TIME ( #7, #143 ) ;
#145 =( GEOMETRIC_REPRESENTATION_CONTEXT ( 3 ) GLOBAL_UNCERTAINTY_ASSIGNED_CONTEXT ( ( #103 ) ) GLOBAL_UNIT_ASSIGNED_CONTEXT ( ( #108, #92, #106 ) ) REPRESENTATION_CONTEXT ( 'NONE', 'WORKASPACE' ) );
#146 = CARTESIAN_POINT ( 'NONE',  ( -25.00000000000000000, 0.0000000000000000000, 0.0000000000000000000 ) ) ;
#147 = CC_DESIGN_DATE_AND_TIME_ASSIGNMENT ( #163, #91, ( #132 ) ) ;
#148 = CARTESIAN_POINT ( 'NONE',  ( 0.0000000000000000000, 0.0000000000000000000, 2.000000000000000000 ) ) ;
#149 = AXIS2_PLACEMENT_3D ( 'NONE', #77, #115, #29 ) ;
#150 = DIRECTION ( 'NONE',  ( -1.000000000000000000, 0.0000000000000000000, 0.0000000000000000000 ) ) ;
#151 = APPROVAL_DATE_TIME ( #18, #26 ) ;
#152 = APPROVAL_PERSON_ORGANIZATION ( #118, #96, #83 ) ;
#153 = APPLICATION_CONTEXT ( 'configuration controlled 3d designs of mechanical parts and assemblies' ) ;
#154 = FACE_OUTER_BOUND ( 'NONE', #56, .T. ) ;
#155 = DIRECTION ( 'NONE',  ( 0.0000000000000000000, 0.0000000000000000000, 1.000000000000000000 ) ) ;
#156 = CC_DESIGN_APPROVAL ( #143, ( #65 ) ) ;
#157 = APPROVAL_ROLE ( '' ) ;
#158 = VERTEX_POINT ( 'NONE', #88 ) ;
#159 = PRODUCT_RELATED_PRODUCT_CATEGORY ( 'detail', '', ( #160 ) ) ;
#160 = PRODUCT ( 'Web Model 68520', 'Web Model 68520', '', ( #120 ) ) ;
#161 = AXIS2_PLACEMENT_3D ( 'NONE', #22, #49, #138 ) ;
#162 = AXIS2_PLACEMENT_3D ( 'NONE', #61, #16, #44 ) ;
#163 = DATE_AND_TIME ( #24, #14 ) ;
#164 = CARTESIAN_POINT ( 'NONE',  ( -25.00000000000000000, 0.0000000000000000000, 2.000000000000000000 ) ) ;
#165 = VECTOR ( 'NONE', #45, 1000.000000000000000 ) ;
#166 = DIRECTION ( 'NONE',  ( 0.0000000000000000000, 0.0000000000000000000, 1.000000000000000000 ) ) ;
#167 = APPLICATION_CONTEXT ( 'configuration controlled 3d designs of mechanical parts and assemblies' ) ;
#168 = PERSON_AND_ORGANIZATION_ROLE ( 'creator' ) ;
#169 = CIRCLE ( 'NONE', #105, 25.00000000000000000 ) ;
#170 = AXIS2_PLACEMENT_3D ( 'NONE', #148, #166, #59 ) ;
#171 = APPROVAL_PERSON_ORGANIZATION ( #1, #26, #3 ) ;
#172 = EDGE_CURVE ( 'NONE', #158, #121, #78, .T. ) ;
#173 = CALENDAR_DATE ( 2017, 1, 2 ) ;
#174 = ADVANCED_FACE ( 'NONE', ( #42 ), #40, .T. ) ;
#175 = DIRECTION ( 'NONE',  ( -0.0000000000000000000, -0.0000000000000000000, -1.000000000000000000 ) ) ;
ENDSEC;
END-ISO-10303-21;
