ISO-10303-21;
HEADER;
FILE_DESCRIPTION (( 'STEP AP203' ),
    '1' );
FILE_NAME ('Web Model 11878_11884.step',
    '2019-01-02T18:30:48',
    ( '' ),
    ( '' ),
    'SwSTEP 2.0',
    'SolidWorks 2016',
    '' );
FILE_SCHEMA (( 'CONFIG_CONTROL_DESIGN' ));
ENDSEC;

DATA;
#1 = ADVANCED_FACE ( 'NONE', ( #53 ), #144, .T. ) ;
#2 = CC_DESIGN_APPROVAL ( #259, ( #245 ) ) ;
#3 = PERSON_AND_ORGANIZATION_ROLE ( 'design_owner' ) ;
#4 = EDGE_LOOP ( 'NONE', ( #234, #73, #27, #16 ) ) ;
#5 = ORIENTED_EDGE ( 'NONE', *, *, #257, .F. ) ;
#6 = APPROVAL_DATE_TIME ( #31, #214 ) ;
#7 = COORDINATED_UNIVERSAL_TIME_OFFSET ( 5, 0, .BEHIND. ) ;
#8 = VECTOR ( 'NONE', #39, 1000.000000000000000 ) ;
#9 = CARTESIAN_POINT ( 'NONE',  ( -2.450000000000000200, 0.0000000000000000000, 12.50000000000000000 ) ) ;
#10 = DATE_AND_TIME ( #174, #50 ) ;
#11 = DIRECTION ( 'NONE',  ( 0.0000000000000000000, 0.0000000000000000000, 1.000000000000000000 ) ) ;
#12 = DESIGN_CONTEXT ( 'detailed design', #204, 'design' ) ;
#13 = LOCAL_TIME ( 13, 30, 48.00000000000000000, #77 ) ;
#14 = CARTESIAN_POINT ( 'NONE',  ( 2.500000000000000000, 1.527746881936323600E-015, -12.45000000000000600 ) ) ;
#15 = EDGE_LOOP ( 'NONE', ( #201, #237 ) ) ;
#16 = ORIENTED_EDGE ( 'NONE', *, *, #129, .F. ) ;
#17 = CARTESIAN_POINT ( 'NONE',  ( 2.500000000000000000, 0.0000000000000000000, 12.45000000000000600 ) ) ;
#18 = AXIS2_PLACEMENT_3D ( 'NONE', #241, #248, #223 ) ;
#19 = CARTESIAN_POINT ( 'NONE',  ( -2.450000000000000200, 1.530808498934191500E-015, 12.50000000000000000 ) ) ;
#20 = ADVANCED_FACE ( 'NONE', ( #105 ), #210, .T. ) ;
#21 = FACE_OUTER_BOUND ( 'NONE', #133, .T. ) ;
#22 = DIRECTION ( 'NONE',  ( 1.000000000000000000, 0.0000000000000000000, 0.0000000000000000000 ) ) ;
#23 = PLANE ( 'NONE',  #164 ) ;
#24 = AXIS2_PLACEMENT_3D ( 'NONE', #203, #249, #160 ) ;
#25 = APPROVAL_STATUS ( 'not_yet_approved' ) ;
#26 = FACE_OUTER_BOUND ( 'NONE', #170, .T. ) ;
#27 = ORIENTED_EDGE ( 'NONE', *, *, #69, .T. ) ;
#28 = DIRECTION ( 'NONE',  ( 1.000000000000000000, 0.0000000000000000000, 0.0000000000000000000 ) ) ;
#29 = UNCERTAINTY_MEASURE_WITH_UNIT (LENGTH_MEASURE( 1.000000000000000100E-005 ), #253, 'distance_accuracy_value', 'NONE');
#30 = EDGE_CURVE ( 'NONE', #162, #255, #35, .T. ) ;
#31 = DATE_AND_TIME ( #254, #216 ) ;
#32 = CYLINDRICAL_SURFACE ( 'NONE', #206, 12.50000000000000000 ) ;
#33 = EDGE_CURVE ( 'NONE', #147, #112, #238, .T. ) ;
#34 = CC_DESIGN_PERSON_AND_ORGANIZATION_ASSIGNMENT ( #142, #46, ( #245 ) ) ;
#35 = CIRCLE ( 'NONE', #152, 12.50000000000000000 ) ;
#36 = CC_DESIGN_PERSON_AND_ORGANIZATION_ASSIGNMENT ( #57, #3, ( #140 ) ) ;
#37 = DIRECTION ( 'NONE',  ( 0.0000000000000000000, 0.0000000000000000000, 1.000000000000000000 ) ) ;
#38 = CIRCLE ( 'NONE', #239, 12.45000000000000300 ) ;
#39 = DIRECTION ( 'NONE',  ( 0.7071067811865597900, 0.0000000000000000000, -0.7071067811865352500 ) ) ;
#40 = DIRECTION ( 'NONE',  ( -1.000000000000000000, 0.0000000000000000000, 0.0000000000000000000 ) ) ;
#41 = LINE ( 'NONE', #191, #256 ) ;
#42 = DIRECTION ( 'NONE',  ( 0.0000000000000000000, 0.0000000000000000000, -1.000000000000000000 ) ) ;
#43 = AXIS2_PLACEMENT_3D ( 'NONE', #185, #90, #166 ) ;
#44 = MECHANICAL_CONTEXT ( 'NONE', #70, 'mechanical' ) ;
#45 = LINE ( 'NONE', #106, #8 ) ;
#46 = PERSON_AND_ORGANIZATION_ROLE ( 'creator' ) ;
#47 = CALENDAR_DATE ( 2019, 2, 1 ) ;
#48 = LINE ( 'NONE', #62, #266 ) ;
#49 = VERTEX_POINT ( 'NONE', #9 ) ;
#50 = LOCAL_TIME ( 13, 30, 48.00000000000000000, #91 ) ;
#51 =( GEOMETRIC_REPRESENTATION_CONTEXT ( 3 ) GLOBAL_UNCERTAINTY_ASSIGNED_CONTEXT ( ( #29 ) ) GLOBAL_UNIT_ASSIGNED_CONTEXT ( ( #253, #167, #227 ) ) REPRESENTATION_CONTEXT ( 'NONE', 'WORKASPACE' ) );
#52 = DIRECTION ( 'NONE',  ( -1.000000000000000000, -0.0000000000000000000, -0.0000000000000000000 ) ) ;
#53 = FACE_OUTER_BOUND ( 'NONE', #221, .T. ) ;
#54 = ORIENTED_EDGE ( 'NONE', *, *, #235, .F. ) ;
#55 = DIRECTION ( 'NONE',  ( -1.000000000000000000, 0.0000000000000000000, 0.0000000000000000000 ) ) ;
#56 = EDGE_CURVE ( 'NONE', #162, #95, #41, .T. ) ;
#57 = PERSON_AND_ORGANIZATION ( #118, #87 ) ;
#58 = ORIENTED_EDGE ( 'NONE', *, *, #69, .F. ) ;
#59 = DIRECTION ( 'NONE',  ( 1.000000000000000000, -0.0000000000000000000, -0.0000000000000000000 ) ) ;
#60 = DIRECTION ( 'NONE',  ( 0.0000000000000000000, 0.0000000000000000000, 1.000000000000000000 ) ) ;
#61 = AXIS2_PLACEMENT_3D ( 'NONE', #199, #246, #128 ) ;
#62 = CARTESIAN_POINT ( 'NONE',  ( 2.500000000000000000, 1.524685264938455400E-015, -12.45000000000000600 ) ) ;
#63 = CALENDAR_DATE ( 2019, 2, 1 ) ;
#64 = EDGE_LOOP ( 'NONE', ( #98, #124, #189, #207 ) ) ;
#65 = VERTEX_POINT ( 'NONE', #83 ) ;
#66 = AXIS2_PLACEMENT_3D ( 'NONE', #119, #52, #157 ) ;
#67 = PERSON_AND_ORGANIZATION_ROLE ( 'creator' ) ;
#68 = PERSON_AND_ORGANIZATION ( #118, #87 ) ;
#69 = EDGE_CURVE ( 'NONE', #95, #49, #231, .T. ) ;
#70 = APPLICATION_CONTEXT ( 'configuration controlled 3d designs of mechanical parts and assemblies' ) ;
#71 = COORDINATED_UNIVERSAL_TIME_OFFSET ( 5, 0, .BEHIND. ) ;
#72 = ORIENTED_EDGE ( 'NONE', *, *, #171, .F. ) ;
#73 = ORIENTED_EDGE ( 'NONE', *, *, #56, .T. ) ;
#74 = SECURITY_CLASSIFICATION ( '', '', #209 ) ;
#75 = DATE_AND_TIME ( #158, #104 ) ;
#76 = CC_DESIGN_APPROVAL ( #214, ( #74 ) ) ;
#77 = COORDINATED_UNIVERSAL_TIME_OFFSET ( 5, 0, .BEHIND. ) ;
#78 = AXIS2_PLACEMENT_3D ( 'NONE', #182, #220, #60 ) ;
#79 = AXIS2_PLACEMENT_3D ( 'NONE', #85, #40, #222 ) ;
#80 = FACE_OUTER_BOUND ( 'NONE', #159, .T. ) ;
#81 = DIRECTION ( 'NONE',  ( 0.7071067811865597900, 8.659560562354782500E-017, 0.7071067811865352500 ) ) ;
#82 = ORIENTED_EDGE ( 'NONE', *, *, #94, .F. ) ;
#83 = CARTESIAN_POINT ( 'NONE',  ( -2.500000000000000000, 0.0000000000000000000, -12.45000000000000300 ) ) ;
#84 = MANIFOLD_SOLID_BREP ( 'Chamfer1', #172 ) ;
#85 = CARTESIAN_POINT ( 'NONE',  ( 2.450000000000003700, 0.0000000000000000000, 0.0000000000000000000 ) ) ;
#86 = DIRECTION ( 'NONE',  ( 0.0000000000000000000, 0.0000000000000000000, -1.000000000000000000 ) ) ;
#87 = ORGANIZATION ( 'UNSPECIFIED', 'UNSPECIFIED', '' ) ;
#88 = APPROVAL_ROLE ( '' ) ;
#89 = APPROVAL_ROLE ( '' ) ;
#90 = DIRECTION ( 'NONE',  ( 1.000000000000000000, -0.0000000000000000000, -0.0000000000000000000 ) ) ;
#91 = COORDINATED_UNIVERSAL_TIME_OFFSET ( 5, 0, .BEHIND. ) ;
#92 = ORIENTED_EDGE ( 'NONE', *, *, #114, .F. ) ;
#93 = APPROVAL_STATUS ( 'not_yet_approved' ) ;
#94 = EDGE_CURVE ( 'NONE', #65, #232, #187, .T. ) ;
#95 = VERTEX_POINT ( 'NONE', #177 ) ;
#96 = CONICAL_SURFACE ( 'NONE', #43, 12.50000000000000000, 0.7853981633974309600 ) ;
#97 = AXIS2_PLACEMENT_3D ( 'NONE', #178, #59, #197 ) ;
#98 = ORIENTED_EDGE ( 'NONE', *, *, #56, .F. ) ;
#99 = LINE ( 'NONE', #122, #131 ) ;
#100 = EDGE_CURVE ( 'NONE', #112, #162, #48, .T. ) ;
#101 = CARTESIAN_POINT ( 'NONE',  ( -2.500000000000000000, 0.0000000000000000000, 0.0000000000000000000 ) ) ;
#102 = CC_DESIGN_PERSON_AND_ORGANIZATION_ASSIGNMENT ( #68, #226, ( #245 ) ) ;
#103 = DIRECTION ( 'NONE',  ( -0.7071067811865597900, 0.0000000000000000000, 0.7071067811865352500 ) ) ;
#104 = LOCAL_TIME ( 13, 30, 48.00000000000000000, #212 ) ;
#105 = FACE_OUTER_BOUND ( 'NONE', #64, .T. ) ;
#106 = CARTESIAN_POINT ( 'NONE',  ( -2.450000000000000200, 0.0000000000000000000, -12.50000000000000000 ) ) ;
#107 = PERSON_AND_ORGANIZATION_ROLE ( 'classification_officer' ) ;
#108 = DATE_TIME_ROLE ( 'creation_date' ) ;
#109 = CARTESIAN_POINT ( 'NONE',  ( 2.450000000000003700, 0.0000000000000000000, 12.50000000000000000 ) ) ;
#110 = AXIS2_PLACEMENT_3D ( 'NONE', #247, #218, #180 ) ;
#111 = DIRECTION ( 'NONE',  ( 0.0000000000000000000, 0.0000000000000000000, -1.000000000000000000 ) ) ;
#112 = VERTEX_POINT ( 'NONE', #14 ) ;
#113 = ADVANCED_BREP_SHAPE_REPRESENTATION ( 'Web Model 11878_11884', ( #84, #262 ), #51 ) ;
#114 = EDGE_CURVE ( 'NONE', #49, #95, #192, .T. ) ;
#115 = ORIENTED_EDGE ( 'NONE', *, *, #94, .T. ) ;
#116 = PERSON_AND_ORGANIZATION ( #118, #87 ) ;
#117 = ORIENTED_EDGE ( 'NONE', *, *, #235, .T. ) ;
#118 = PERSON ( 'UNSPECIFIED', 'UNSPECIFIED', 'UNSPECIFIED', ('UNSPECIFIED'), ('UNSPECIFIED'), ('UNSPECIFIED') ) ;
#119 = CARTESIAN_POINT ( 'NONE',  ( 2.500000000000000000, 0.0000000000000000000, 0.0000000000000000000 ) ) ;
#120 = ORIENTED_EDGE ( 'NONE', *, *, #190, .F. ) ;
#121 = PRODUCT_DEFINITION ( 'UNKNOWN', '', #245, #12 ) ;
#122 = CARTESIAN_POINT ( 'NONE',  ( 2.500000000000000000, 0.0000000000000000000, 12.45000000000000600 ) ) ;
#123 = ORIENTED_EDGE ( 'NONE', *, *, #150, .F. ) ;
#124 = ORIENTED_EDGE ( 'NONE', *, *, #30, .T. ) ;
#125 = DIRECTION ( 'NONE',  ( -1.000000000000000000, -0.0000000000000000000, -0.0000000000000000000 ) ) ;
#126 = CARTESIAN_POINT ( 'NONE',  ( 2.450000000000003700, 1.530808498934191500E-015, -12.50000000000000000 ) ) ;
#127 = ADVANCED_FACE ( 'NONE', ( #26 ), #250, .T. ) ;
#128 = DIRECTION ( 'NONE',  ( 0.0000000000000000000, 0.0000000000000000000, -1.000000000000000000 ) ) ;
#129 = EDGE_CURVE ( 'NONE', #255, #49, #236, .T. ) ;
#130 = CARTESIAN_POINT ( 'NONE',  ( 0.0000000000000000000, 0.0000000000000000000, 0.0000000000000000000 ) ) ;
#131 = VECTOR ( 'NONE', #103, 1000.000000000000000 ) ;
#132 = PRODUCT_RELATED_PRODUCT_CATEGORY ( 'detail', '', ( #140 ) ) ;
#133 = EDGE_LOOP ( 'NONE', ( #123, #82, #117, #92 ) ) ;
#134 = CC_DESIGN_APPROVAL ( #173, ( #121 ) ) ;
#135 = ORIENTED_EDGE ( 'NONE', *, *, #141, .T. ) ;
#136 = VECTOR ( 'NONE', #125, 1000.000000000000000 ) ;
#137 = EDGE_LOOP ( 'NONE', ( #184, #267, #58, #54 ) ) ;
#138 = ADVANCED_FACE ( 'NONE', ( #21 ), #179, .T. ) ;
#139 = AXIS2_PLACEMENT_3D ( 'NONE', #240, #55, #37 ) ;
#140 = PRODUCT ( 'Web Model 11878_11884', 'Web Model 11878_11884', '', ( #44 ) ) ;
#141 = EDGE_CURVE ( 'NONE', #232, #65, #38, .T. ) ;
#142 = PERSON_AND_ORGANIZATION ( #118, #87 ) ;
#143 = DIRECTION ( 'NONE',  ( -1.000000000000000000, -0.0000000000000000000, -0.0000000000000000000 ) ) ;
#144 = CONICAL_SURFACE ( 'NONE', #139, 12.45000000000000600, 0.7853981633974309600 ) ;
#145 = DIRECTION ( 'NONE',  ( -1.000000000000000000, -0.0000000000000000000, -0.0000000000000000000 ) ) ;
#146 = CIRCLE ( 'NONE', #271, 12.45000000000000600 ) ;
#147 = VERTEX_POINT ( 'NONE', #17 ) ;
#148 = CARTESIAN_POINT ( 'NONE',  ( -2.450000000000000200, 0.0000000000000000000, 0.0000000000000000000 ) ) ;
#149 = FACE_OUTER_BOUND ( 'NONE', #137, .T. ) ;
#150 = EDGE_CURVE ( 'NONE', #232, #49, #154, .T. ) ;
#151 = ORIENTED_EDGE ( 'NONE', *, *, #171, .T. ) ;
#152 = AXIS2_PLACEMENT_3D ( 'NONE', #193, #261, #194 ) ;
#153 = APPROVAL_PERSON_ORGANIZATION ( #243, #214, #228 ) ;
#154 = LINE ( 'NONE', #19, #175 ) ;
#155 = PERSON_AND_ORGANIZATION ( #118, #87 ) ;
#156 = SHAPE_DEFINITION_REPRESENTATION ( #168, #113 ) ;
#157 = DIRECTION ( 'NONE',  ( 0.0000000000000000000, 0.0000000000000000000, 1.000000000000000000 ) ) ;
#158 = CALENDAR_DATE ( 2019, 2, 1 ) ;
#159 = EDGE_LOOP ( 'NONE', ( #115, #135 ) ) ;
#160 = DIRECTION ( 'NONE',  ( 0.0000000000000000000, 0.0000000000000000000, -1.000000000000000000 ) ) ;
#161 = CARTESIAN_POINT ( 'NONE',  ( 2.500000000000000000, 0.0000000000000000000, 12.50000000000000000 ) ) ;
#162 = VERTEX_POINT ( 'NONE', #126 ) ;
#163 = DIRECTION ( 'NONE',  ( 1.000000000000000000, -0.0000000000000000000, -0.0000000000000000000 ) ) ;
#164 = AXIS2_PLACEMENT_3D ( 'NONE', #186, #22, #42 ) ;
#165 = APPLICATION_PROTOCOL_DEFINITION ( 'international standard', 'config_control_design', 1994, #70 ) ;
#166 = DIRECTION ( 'NONE',  ( 0.0000000000000000000, 0.0000000000000000000, -1.000000000000000000 ) ) ;
#167 =( NAMED_UNIT ( * ) PLANE_ANGLE_UNIT ( ) SI_UNIT ( $, .RADIAN. ) );
#168 = PRODUCT_DEFINITION_SHAPE ( 'NONE', 'NONE',  #121 ) ;
#169 = APPROVAL_DATE_TIME ( #230, #259 ) ;
#170 = EDGE_LOOP ( 'NONE', ( #5, #211, #120, #72 ) ) ;
#171 = EDGE_CURVE ( 'NONE', #147, #255, #99, .T. ) ;
#172 = CLOSED_SHELL ( 'NONE', ( #274, #127, #202, #20, #217, #264, #1, #138 ) ) ;
#173 = APPROVAL ( #93, 'UNSPECIFIED' ) ;
#174 = CALENDAR_DATE ( 2019, 2, 1 ) ;
#175 = VECTOR ( 'NONE', #81, 1000.000000000000000 ) ;
#176 = ORIENTED_EDGE ( 'NONE', *, *, #30, .F. ) ;
#177 = CARTESIAN_POINT ( 'NONE',  ( -2.450000000000000200, 1.530808498934191500E-015, -12.50000000000000000 ) ) ;
#178 = CARTESIAN_POINT ( 'NONE',  ( -2.450000000000000200, 0.0000000000000000000, 0.0000000000000000000 ) ) ;
#179 = CONICAL_SURFACE ( 'NONE', #61, 12.50000000000000000, 0.7853981633974309600 ) ;
#180 = DIRECTION ( 'NONE',  ( 0.0000000000000000000, 0.0000000000000000000, -1.000000000000000000 ) ) ;
#181 = CARTESIAN_POINT ( 'NONE',  ( 2.500000000000000000, 0.0000000000000000000, 0.0000000000000000000 ) ) ;
#182 = CARTESIAN_POINT ( 'NONE',  ( 2.500000000000000000, 0.0000000000000000000, 0.0000000000000000000 ) ) ;
#183 = CARTESIAN_POINT ( 'NONE',  ( 2.500000000000000000, 0.0000000000000000000, 0.0000000000000000000 ) ) ;
#184 = ORIENTED_EDGE ( 'NONE', *, *, #141, .F. ) ;
#185 = CARTESIAN_POINT ( 'NONE',  ( -2.450000000000000200, 0.0000000000000000000, 0.0000000000000000000 ) ) ;
#186 = CARTESIAN_POINT ( 'NONE',  ( -2.500000000000000000, 0.0000000000000000000, 0.0000000000000000000 ) ) ;
#187 = CIRCLE ( 'NONE', #110, 12.45000000000000300 ) ;
#188 = APPROVAL_DATE_TIME ( #258, #173 ) ;
#189 = ORIENTED_EDGE ( 'NONE', *, *, #129, .T. ) ;
#190 = EDGE_CURVE ( 'NONE', #255, #162, #260, .T. ) ;
#191 = CARTESIAN_POINT ( 'NONE',  ( 2.500000000000000000, 1.530808498934191500E-015, -12.50000000000000000 ) ) ;
#192 = CIRCLE ( 'NONE', #224, 12.50000000000000000 ) ;
#193 = CARTESIAN_POINT ( 'NONE',  ( 2.450000000000003700, 0.0000000000000000000, 0.0000000000000000000 ) ) ;
#194 = DIRECTION ( 'NONE',  ( 0.0000000000000000000, 0.0000000000000000000, -1.000000000000000000 ) ) ;
#195 = CC_DESIGN_SECURITY_CLASSIFICATION ( #74, ( #245 ) ) ;
#196 = APPROVAL_PERSON_ORGANIZATION ( #265, #259, #89 ) ;
#197 = DIRECTION ( 'NONE',  ( 0.0000000000000000000, 0.0000000000000000000, -1.000000000000000000 ) ) ;
#198 = FACE_OUTER_BOUND ( 'NONE', #4, .T. ) ;
#199 = CARTESIAN_POINT ( 'NONE',  ( -2.450000000000000200, 0.0000000000000000000, 0.0000000000000000000 ) ) ;
#200 = DIRECTION ( 'NONE',  ( 0.0000000000000000000, 0.0000000000000000000, -1.000000000000000000 ) ) ;
#201 = ORIENTED_EDGE ( 'NONE', *, *, #33, .T. ) ;
#202 = ADVANCED_FACE ( 'NONE', ( #198 ), #32, .T. ) ;
#203 = CARTESIAN_POINT ( 'NONE',  ( 2.500000000000000000, 0.0000000000000000000, 0.0000000000000000000 ) ) ;
#204 = APPLICATION_CONTEXT ( 'configuration controlled 3d designs of mechanical parts and assemblies' ) ;
#205 = APPLICATION_PROTOCOL_DEFINITION ( 'international standard', 'config_control_design', 1994, #204 ) ;
#206 = AXIS2_PLACEMENT_3D ( 'NONE', #181, #143, #11 ) ;
#207 = ORIENTED_EDGE ( 'NONE', *, *, #114, .T. ) ;
#208 = DATE_TIME_ROLE ( 'classification_date' ) ;
#209 = SECURITY_CLASSIFICATION_LEVEL ( 'unclassified' ) ;
#210 = CYLINDRICAL_SURFACE ( 'NONE', #66, 12.50000000000000000 ) ;
#211 = ORIENTED_EDGE ( 'NONE', *, *, #100, .T. ) ;
#212 = COORDINATED_UNIVERSAL_TIME_OFFSET ( 5, 0, .BEHIND. ) ;
#213 = ORIENTED_EDGE ( 'NONE', *, *, #100, .F. ) ;
#214 = APPROVAL ( #25, 'UNSPECIFIED' ) ;
#215 = CC_DESIGN_PERSON_AND_ORGANIZATION_ASSIGNMENT ( #233, #67, ( #121 ) ) ;
#216 = LOCAL_TIME ( 13, 30, 48.00000000000000000, #71 ) ;
#217 = ADVANCED_FACE ( 'NONE', ( #244 ), #263, .T. ) ;
#218 = DIRECTION ( 'NONE',  ( -1.000000000000000000, -0.0000000000000000000, -0.0000000000000000000 ) ) ;
#219 = LOCAL_TIME ( 13, 30, 48.00000000000000000, #7 ) ;
#220 = DIRECTION ( 'NONE',  ( -1.000000000000000000, 0.0000000000000000000, 0.0000000000000000000 ) ) ;
#221 = EDGE_LOOP ( 'NONE', ( #213, #251, #151, #176 ) ) ;
#222 = DIRECTION ( 'NONE',  ( 0.0000000000000000000, 0.0000000000000000000, -1.000000000000000000 ) ) ;
#223 = DIRECTION ( 'NONE',  ( 0.0000000000000000000, 0.0000000000000000000, -1.000000000000000000 ) ) ;
#224 = AXIS2_PLACEMENT_3D ( 'NONE', #148, #163, #200 ) ;
#225 = APPROVAL_STATUS ( 'not_yet_approved' ) ;
#226 = PERSON_AND_ORGANIZATION_ROLE ( 'design_supplier' ) ;
#227 =( NAMED_UNIT ( * ) SI_UNIT ( $, .STERADIAN. ) SOLID_ANGLE_UNIT ( ) );
#228 = APPROVAL_ROLE ( '' ) ;
#229 = CC_DESIGN_DATE_AND_TIME_ASSIGNMENT ( #75, #108, ( #121 ) ) ;
#230 = DATE_AND_TIME ( #47, #13 ) ;
#231 = CIRCLE ( 'NONE', #97, 12.50000000000000000 ) ;
#232 = VERTEX_POINT ( 'NONE', #269 ) ;
#233 = PERSON_AND_ORGANIZATION ( #118, #87 ) ;
#234 = ORIENTED_EDGE ( 'NONE', *, *, #190, .T. ) ;
#235 = EDGE_CURVE ( 'NONE', #65, #95, #45, .T. ) ;
#236 = LINE ( 'NONE', #161, #136 ) ;
#237 = ORIENTED_EDGE ( 'NONE', *, *, #257, .T. ) ;
#238 = CIRCLE ( 'NONE', #18, 12.45000000000000600 ) ;
#239 = AXIS2_PLACEMENT_3D ( 'NONE', #101, #145, #86 ) ;
#240 = CARTESIAN_POINT ( 'NONE',  ( 2.500000000000000000, 0.0000000000000000000, 0.0000000000000000000 ) ) ;
#241 = CARTESIAN_POINT ( 'NONE',  ( 2.500000000000000000, 0.0000000000000000000, 0.0000000000000000000 ) ) ;
#242 = DIRECTION ( 'NONE',  ( -1.000000000000000000, -0.0000000000000000000, -0.0000000000000000000 ) ) ;
#243 = PERSON_AND_ORGANIZATION ( #118, #87 ) ;
#244 = FACE_OUTER_BOUND ( 'NONE', #15, .T. ) ;
#245 = PRODUCT_DEFINITION_FORMATION_WITH_SPECIFIED_SOURCE ( 'ANY', '', #140, .NOT_KNOWN. ) ;
#246 = DIRECTION ( 'NONE',  ( 1.000000000000000000, -0.0000000000000000000, -0.0000000000000000000 ) ) ;
#247 = CARTESIAN_POINT ( 'NONE',  ( -2.500000000000000000, 0.0000000000000000000, 0.0000000000000000000 ) ) ;
#248 = DIRECTION ( 'NONE',  ( 1.000000000000000000, 0.0000000000000000000, 0.0000000000000000000 ) ) ;
#249 = DIRECTION ( 'NONE',  ( 1.000000000000000000, 0.0000000000000000000, 0.0000000000000000000 ) ) ;
#250 = CONICAL_SURFACE ( 'NONE', #78, 12.45000000000000600, 0.7853981633974309600 ) ;
#251 = ORIENTED_EDGE ( 'NONE', *, *, #33, .F. ) ;
#252 = CC_DESIGN_DATE_AND_TIME_ASSIGNMENT ( #10, #208, ( #74 ) ) ;
#253 =( LENGTH_UNIT ( ) NAMED_UNIT ( * ) SI_UNIT ( .MILLI., .METRE. ) );
#254 = CALENDAR_DATE ( 2019, 2, 1 ) ;
#255 = VERTEX_POINT ( 'NONE', #109 ) ;
#256 = VECTOR ( 'NONE', #242, 1000.000000000000000 ) ;
#257 = EDGE_CURVE ( 'NONE', #112, #147, #146, .T. ) ;
#258 = DATE_AND_TIME ( #63, #219 ) ;
#259 = APPROVAL ( #225, 'UNSPECIFIED' ) ;
#260 = CIRCLE ( 'NONE', #79, 12.50000000000000000 ) ;
#261 = DIRECTION ( 'NONE',  ( -1.000000000000000000, 0.0000000000000000000, 0.0000000000000000000 ) ) ;
#262 = AXIS2_PLACEMENT_3D ( 'NONE', #130, #275, #28 ) ;
#263 = PLANE ( 'NONE',  #24 ) ;
#264 = ADVANCED_FACE ( 'NONE', ( #80 ), #23, .F. ) ;
#265 = PERSON_AND_ORGANIZATION ( #118, #87 ) ;
#266 = VECTOR ( 'NONE', #270, 1000.000000000000000 ) ;
#267 = ORIENTED_EDGE ( 'NONE', *, *, #150, .T. ) ;
#268 = CC_DESIGN_PERSON_AND_ORGANIZATION_ASSIGNMENT ( #116, #107, ( #74 ) ) ;
#269 = CARTESIAN_POINT ( 'NONE',  ( -2.500000000000000000, 1.527746881936323400E-015, 12.45000000000000300 ) ) ;
#270 = DIRECTION ( 'NONE',  ( -0.7071067811865597900, 8.659560562354782500E-017, -0.7071067811865352500 ) ) ;
#271 = AXIS2_PLACEMENT_3D ( 'NONE', #183, #272, #111 ) ;
#272 = DIRECTION ( 'NONE',  ( 1.000000000000000000, 0.0000000000000000000, 0.0000000000000000000 ) ) ;
#273 = APPROVAL_PERSON_ORGANIZATION ( #155, #173, #88 ) ;
#274 = ADVANCED_FACE ( 'NONE', ( #149 ), #96, .T. ) ;
#275 = DIRECTION ( 'NONE',  ( 0.0000000000000000000, 0.0000000000000000000, 1.000000000000000000 ) ) ;
ENDSEC;
END-ISO-10303-21;
