ISO-10303-21;
HEADER;
FILE_DESCRIPTION (( 'STEP AP203' ),
    '1' );
FILE_NAME ('34601_36951.step',
    '2017-08-24T13:14:20',
    ( '' ),
    ( '' ),
    'SwSTEP 2.0',
    'SolidWorks 2016',
    '' );
FILE_SCHEMA (( 'CONFIG_CONTROL_DESIGN' ));
ENDSEC;

DATA;
#1 = FACE_OUTER_BOUND ( 'NONE', #171, .T. ) ;
#2 = DIRECTION ( 'NONE',  ( 0.0000000000000000000, 0.0000000000000000000, 1.000000000000000000 ) ) ;
#3 = AXIS2_PLACEMENT_3D ( 'NONE', #163, #80, #94 ) ;
#4 = DATE_AND_TIME ( #44, #134 ) ;
#5 = VERTEX_POINT ( 'NONE', #127 ) ;
#6 = PERSON_AND_ORGANIZATION ( #25, #117 ) ;
#7 = CYLINDRICAL_SURFACE ( 'NONE', #112, 25.00000000000000000 ) ;
#8 = CC_DESIGN_SECURITY_CLASSIFICATION ( #48, ( #147 ) ) ;
#9 = DIRECTION ( 'NONE',  ( -1.000000000000000000, 0.0000000000000000000, 0.0000000000000000000 ) ) ;
#10 = PERSON_AND_ORGANIZATION_ROLE ( 'design_owner' ) ;
#11 = PERSON_AND_ORGANIZATION_ROLE ( 'creator' ) ;
#12 = VERTEX_POINT ( 'NONE', #140 ) ;
#13 =( LENGTH_UNIT ( ) NAMED_UNIT ( * ) SI_UNIT ( .MILLI., .METRE. ) );
#14 = DIRECTION ( 'NONE',  ( 0.0000000000000000000, 0.0000000000000000000, 1.000000000000000000 ) ) ;
#15 = CC_DESIGN_PERSON_AND_ORGANIZATION_ASSIGNMENT ( #166, #10, ( #30 ) ) ;
#16 = DIRECTION ( 'NONE',  ( 1.000000000000000000, 0.0000000000000000000, 0.0000000000000000000 ) ) ;
#17 = AXIS2_PLACEMENT_3D ( 'NONE', #24, #2, #98 ) ;
#18 = ORIENTED_EDGE ( 'NONE', *, *, #87, .F. ) ;
#19 = DATE_AND_TIME ( #61, #167 ) ;
#20 = ADVANCED_BREP_SHAPE_REPRESENTATION ( '34601_36951', ( #110, #28 ), #109 ) ;
#21 = COORDINATED_UNIVERSAL_TIME_OFFSET ( 5, 0, .BEHIND. ) ;
#22 = DIRECTION ( 'NONE',  ( 1.000000000000000000, 0.0000000000000000000, -0.0000000000000000000 ) ) ;
#23 = CALENDAR_DATE ( 2017, 24, 8 ) ;
#24 = CARTESIAN_POINT ( 'NONE',  ( 0.0000000000000000000, 0.0000000000000000000, 0.0000000000000000000 ) ) ;
#25 = PERSON ( 'UNSPECIFIED', 'UNSPECIFIED', 'UNSPECIFIED', ('UNSPECIFIED'), ('UNSPECIFIED'), ('UNSPECIFIED') ) ;
#26 = AXIS2_PLACEMENT_3D ( 'NONE', #69, #145, #53 ) ;
#27 = ORIENTED_EDGE ( 'NONE', *, *, #130, .F. ) ;
#28 = AXIS2_PLACEMENT_3D ( 'NONE', #173, #14, #37 ) ;
#29 = EDGE_LOOP ( 'NONE', ( #75, #66 ) ) ;
#30 = PRODUCT ( '34601_36951', '34601_36951', '', ( #133 ) ) ;
#31 = PERSON_AND_ORGANIZATION ( #25, #117 ) ;
#32 = ORIENTED_EDGE ( 'NONE', *, *, #124, .T. ) ;
#33 = FACE_OUTER_BOUND ( 'NONE', #119, .T. ) ;
#34 = EDGE_CURVE ( 'NONE', #12, #131, #152, .T. ) ;
#35 = LOCAL_TIME ( 9, 14, 20.00000000000000000, #57 ) ;
#36 = DATE_TIME_ROLE ( 'creation_date' ) ;
#37 = DIRECTION ( 'NONE',  ( 1.000000000000000000, 0.0000000000000000000, 0.0000000000000000000 ) ) ;
#38 = DIRECTION ( 'NONE',  ( 0.0000000000000000000, 0.0000000000000000000, 1.000000000000000000 ) ) ;
#39 = ORIENTED_EDGE ( 'NONE', *, *, #138, .F. ) ;
#40 = APPROVAL ( #55, 'UNSPECIFIED' ) ;
#41 = SECURITY_CLASSIFICATION_LEVEL ( 'unclassified' ) ;
#42 = DATE_AND_TIME ( #23, #51 ) ;
#43 = PRODUCT_DEFINITION ( 'UNKNOWN', '', #147, #86 ) ;
#44 = CALENDAR_DATE ( 2017, 24, 8 ) ;
#45 = COORDINATED_UNIVERSAL_TIME_OFFSET ( 5, 0, .BEHIND. ) ;
#46 = COORDINATED_UNIVERSAL_TIME_OFFSET ( 5, 0, .BEHIND. ) ;
#47 = ORIENTED_EDGE ( 'NONE', *, *, #34, .F. ) ;
#48 = SECURITY_CLASSIFICATION ( '', '', #41 ) ;
#49 = DIRECTION ( 'NONE',  ( 1.000000000000000000, 0.0000000000000000000, 0.0000000000000000000 ) ) ;
#50 = PLANE ( 'NONE',  #81 ) ;
#51 = LOCAL_TIME ( 9, 14, 20.00000000000000000, #21 ) ;
#52 = CC_DESIGN_DATE_AND_TIME_ASSIGNMENT ( #156, #36, ( #43 ) ) ;
#53 = DIRECTION ( 'NONE',  ( 1.000000000000000000, 0.0000000000000000000, -0.0000000000000000000 ) ) ;
#54 =( NAMED_UNIT ( * ) SI_UNIT ( $, .STERADIAN. ) SOLID_ANGLE_UNIT ( ) );
#55 = APPROVAL_STATUS ( 'not_yet_approved' ) ;
#56 = PERSON_AND_ORGANIZATION_ROLE ( 'design_supplier' ) ;
#57 = COORDINATED_UNIVERSAL_TIME_OFFSET ( 5, 0, .BEHIND. ) ;
#58 = APPROVAL ( #83, 'UNSPECIFIED' ) ;
#59 = CC_DESIGN_PERSON_AND_ORGANIZATION_ASSIGNMENT ( #99, #67, ( #48 ) ) ;
#60 = COORDINATED_UNIVERSAL_TIME_OFFSET ( 5, 0, .BEHIND. ) ;
#61 = CALENDAR_DATE ( 2017, 24, 8 ) ;
#62 = DIRECTION ( 'NONE',  ( 0.0000000000000000000, 0.0000000000000000000, 1.000000000000000000 ) ) ;
#63 = VECTOR ( 'NONE', #175, 1000.000000000000000 ) ;
#64 = DIRECTION ( 'NONE',  ( -0.0000000000000000000, -0.0000000000000000000, -1.000000000000000000 ) ) ;
#65 = CARTESIAN_POINT ( 'NONE',  ( 0.0000000000000000000, 0.0000000000000000000, 3.000000000000000000 ) ) ;
#66 = ORIENTED_EDGE ( 'NONE', *, *, #138, .T. ) ;
#67 = PERSON_AND_ORGANIZATION_ROLE ( 'classification_officer' ) ;
#68 = APPROVAL_ROLE ( '' ) ;
#69 = CARTESIAN_POINT ( 'NONE',  ( 0.0000000000000000000, 0.0000000000000000000, 0.0000000000000000000 ) ) ;
#70 = ORIENTED_EDGE ( 'NONE', *, *, #34, .T. ) ;
#71 = DIRECTION ( 'NONE',  ( -1.000000000000000000, 0.0000000000000000000, 0.0000000000000000000 ) ) ;
#72 = PRODUCT_RELATED_PRODUCT_CATEGORY ( 'detail', '', ( #30 ) ) ;
#73 =( NAMED_UNIT ( * ) PLANE_ANGLE_UNIT ( ) SI_UNIT ( $, .RADIAN. ) );
#74 = APPROVAL_PERSON_ORGANIZATION ( #6, #40, #149 ) ;
#75 = ORIENTED_EDGE ( 'NONE', *, *, #106, .T. ) ;
#76 = VECTOR ( 'NONE', #64, 1000.000000000000000 ) ;
#77 = CC_DESIGN_APPROVAL ( #58, ( #43 ) ) ;
#78 = ORIENTED_EDGE ( 'NONE', *, *, #106, .F. ) ;
#79 = CC_DESIGN_APPROVAL ( #40, ( #147 ) ) ;
#80 = DIRECTION ( 'NONE',  ( 0.0000000000000000000, 0.0000000000000000000, 1.000000000000000000 ) ) ;
#81 = AXIS2_PLACEMENT_3D ( 'NONE', #172, #107, #22 ) ;
#82 = CLOSED_SHELL ( 'NONE', ( #128, #123, #88, #168 ) ) ;
#83 = APPROVAL_STATUS ( 'not_yet_approved' ) ;
#84 = APPROVAL_PERSON_ORGANIZATION ( #90, #92, #68 ) ;
#85 = CC_DESIGN_DATE_AND_TIME_ASSIGNMENT ( #165, #158, ( #48 ) ) ;
#86 = DESIGN_CONTEXT ( 'detailed design', #97, 'design' ) ;
#87 = EDGE_CURVE ( 'NONE', #5, #12, #169, .T. ) ;
#88 = ADVANCED_FACE ( 'NONE', ( #113 ), #50, .T. ) ;
#89 = AXIS2_PLACEMENT_3D ( 'NONE', #65, #93, #9 ) ;
#90 = PERSON_AND_ORGANIZATION ( #25, #117 ) ;
#91 = CARTESIAN_POINT ( 'NONE',  ( 0.0000000000000000000, 0.0000000000000000000, 0.0000000000000000000 ) ) ;
#92 = APPROVAL ( #108, 'UNSPECIFIED' ) ;
#93 = DIRECTION ( 'NONE',  ( -0.0000000000000000000, -0.0000000000000000000, -1.000000000000000000 ) ) ;
#94 = DIRECTION ( 'NONE',  ( 1.000000000000000000, 0.0000000000000000000, 0.0000000000000000000 ) ) ;
#95 = CIRCLE ( 'NONE', #3, 25.00000000000000000 ) ;
#96 = APPROVAL_ROLE ( '' ) ;
#97 = APPLICATION_CONTEXT ( 'configuration controlled 3d designs of mechanical parts and assemblies' ) ;
#98 = DIRECTION ( 'NONE',  ( 1.000000000000000000, 0.0000000000000000000, 0.0000000000000000000 ) ) ;
#99 = PERSON_AND_ORGANIZATION ( #25, #117 ) ;
#100 = PERSON_AND_ORGANIZATION ( #25, #117 ) ;
#101 = LINE ( 'NONE', #115, #63 ) ;
#102 = AXIS2_PLACEMENT_3D ( 'NONE', #91, #62, #49 ) ;
#103 = FACE_OUTER_BOUND ( 'NONE', #154, .T. ) ;
#104 = APPROVAL_DATE_TIME ( #42, #40 ) ;
#105 = VERTEX_POINT ( 'NONE', #142 ) ;
#106 = EDGE_CURVE ( 'NONE', #105, #5, #122, .T. ) ;
#107 = DIRECTION ( 'NONE',  ( 0.0000000000000000000, 0.0000000000000000000, 1.000000000000000000 ) ) ;
#108 = APPROVAL_STATUS ( 'not_yet_approved' ) ;
#109 =( GEOMETRIC_REPRESENTATION_CONTEXT ( 3 ) GLOBAL_UNCERTAINTY_ASSIGNED_CONTEXT ( ( #150 ) ) GLOBAL_UNIT_ASSIGNED_CONTEXT ( ( #13, #73, #54 ) ) REPRESENTATION_CONTEXT ( 'NONE', 'WORKASPACE' ) );
#110 = MANIFOLD_SOLID_BREP ( 'Boss-Extrude1', #82 ) ;
#111 = DIRECTION ( 'NONE',  ( -0.0000000000000000000, -0.0000000000000000000, -1.000000000000000000 ) ) ;
#112 = AXIS2_PLACEMENT_3D ( 'NONE', #144, #111, #71 ) ;
#113 = FACE_OUTER_BOUND ( 'NONE', #29, .T. ) ;
#114 = APPLICATION_PROTOCOL_DEFINITION ( 'international standard', 'config_control_design', 1994, #174 ) ;
#115 = CARTESIAN_POINT ( 'NONE',  ( -25.00000000000000000, 0.0000000000000000000, 3.000000000000000000 ) ) ;
#116 = CC_DESIGN_APPROVAL ( #92, ( #48 ) ) ;
#117 = ORGANIZATION ( 'UNSPECIFIED', 'UNSPECIFIED', '' ) ;
#118 = CALENDAR_DATE ( 2017, 24, 8 ) ;
#119 = EDGE_LOOP ( 'NONE', ( #39, #157, #70, #125 ) ) ;
#120 = PRODUCT_DEFINITION_SHAPE ( 'NONE', 'NONE',  #43 ) ;
#121 = CALENDAR_DATE ( 2017, 24, 8 ) ;
#122 = CIRCLE ( 'NONE', #155, 25.00000000000000000 ) ;
#123 = ADVANCED_FACE ( 'NONE', ( #103 ), #143, .T. ) ;
#124 = EDGE_CURVE ( 'NONE', #105, #131, #101, .T. ) ;
#125 = ORIENTED_EDGE ( 'NONE', *, *, #124, .F. ) ;
#126 = CC_DESIGN_PERSON_AND_ORGANIZATION_ASSIGNMENT ( #162, #132, ( #147 ) ) ;
#127 = CARTESIAN_POINT ( 'NONE',  ( 25.00000000000000000, 3.061616997868383000E-015, 3.000000000000000000 ) ) ;
#128 = ADVANCED_FACE ( 'NONE', ( #33 ), #7, .T. ) ;
#129 = APPROVAL_DATE_TIME ( #4, #92 ) ;
#130 = EDGE_CURVE ( 'NONE', #131, #12, #151, .T. ) ;
#131 = VERTEX_POINT ( 'NONE', #148 ) ;
#132 = PERSON_AND_ORGANIZATION_ROLE ( 'creator' ) ;
#133 = MECHANICAL_CONTEXT ( 'NONE', #174, 'mechanical' ) ;
#134 = LOCAL_TIME ( 9, 14, 20.00000000000000000, #45 ) ;
#135 = ORIENTED_EDGE ( 'NONE', *, *, #130, .T. ) ;
#136 = CC_DESIGN_PERSON_AND_ORGANIZATION_ASSIGNMENT ( #100, #11, ( #43 ) ) ;
#137 = LOCAL_TIME ( 9, 14, 20.00000000000000000, #46 ) ;
#138 = EDGE_CURVE ( 'NONE', #5, #105, #95, .T. ) ;
#139 = PERSON_AND_ORGANIZATION ( #25, #117 ) ;
#140 = CARTESIAN_POINT ( 'NONE',  ( 25.00000000000000000, 3.061616997868383000E-015, 0.0000000000000000000 ) ) ;
#141 = SHAPE_DEFINITION_REPRESENTATION ( #120, #20 ) ;
#142 = CARTESIAN_POINT ( 'NONE',  ( -25.00000000000000000, 0.0000000000000000000, 3.000000000000000000 ) ) ;
#143 = CYLINDRICAL_SURFACE ( 'NONE', #89, 25.00000000000000000 ) ;
#144 = CARTESIAN_POINT ( 'NONE',  ( 0.0000000000000000000, 0.0000000000000000000, 3.000000000000000000 ) ) ;
#145 = DIRECTION ( 'NONE',  ( 0.0000000000000000000, 0.0000000000000000000, 1.000000000000000000 ) ) ;
#146 = APPLICATION_PROTOCOL_DEFINITION ( 'international standard', 'config_control_design', 1994, #97 ) ;
#147 = PRODUCT_DEFINITION_FORMATION_WITH_SPECIFIED_SOURCE ( 'ANY', '', #30, .NOT_KNOWN. ) ;
#148 = CARTESIAN_POINT ( 'NONE',  ( -25.00000000000000000, 0.0000000000000000000, 0.0000000000000000000 ) ) ;
#149 = APPROVAL_ROLE ( '' ) ;
#150 = UNCERTAINTY_MEASURE_WITH_UNIT (LENGTH_MEASURE( 1.000000000000000100E-005 ), #13, 'distance_accuracy_value', 'NONE');
#151 = CIRCLE ( 'NONE', #17, 25.00000000000000000 ) ;
#152 = CIRCLE ( 'NONE', #102, 25.00000000000000000 ) ;
#153 = CARTESIAN_POINT ( 'NONE',  ( 25.00000000000000000, 3.061616997868383000E-015, 3.000000000000000000 ) ) ;
#154 = EDGE_LOOP ( 'NONE', ( #18, #78, #32, #135 ) ) ;
#155 = AXIS2_PLACEMENT_3D ( 'NONE', #161, #38, #16 ) ;
#156 = DATE_AND_TIME ( #121, #35 ) ;
#157 = ORIENTED_EDGE ( 'NONE', *, *, #87, .T. ) ;
#158 = DATE_TIME_ROLE ( 'classification_date' ) ;
#159 = APPROVAL_DATE_TIME ( #19, #58 ) ;
#160 = APPROVAL_PERSON_ORGANIZATION ( #31, #58, #96 ) ;
#161 = CARTESIAN_POINT ( 'NONE',  ( 0.0000000000000000000, 0.0000000000000000000, 3.000000000000000000 ) ) ;
#162 = PERSON_AND_ORGANIZATION ( #25, #117 ) ;
#163 = CARTESIAN_POINT ( 'NONE',  ( 0.0000000000000000000, 0.0000000000000000000, 3.000000000000000000 ) ) ;
#164 = PLANE ( 'NONE',  #26 ) ;
#165 = DATE_AND_TIME ( #118, #137 ) ;
#166 = PERSON_AND_ORGANIZATION ( #25, #117 ) ;
#167 = LOCAL_TIME ( 9, 14, 20.00000000000000000, #60 ) ;
#168 = ADVANCED_FACE ( 'NONE', ( #1 ), #164, .F. ) ;
#169 = LINE ( 'NONE', #153, #76 ) ;
#170 = CC_DESIGN_PERSON_AND_ORGANIZATION_ASSIGNMENT ( #139, #56, ( #147 ) ) ;
#171 = EDGE_LOOP ( 'NONE', ( #27, #47 ) ) ;
#172 = CARTESIAN_POINT ( 'NONE',  ( 0.0000000000000000000, 0.0000000000000000000, 3.000000000000000000 ) ) ;
#173 = CARTESIAN_POINT ( 'NONE',  ( 0.0000000000000000000, 0.0000000000000000000, 0.0000000000000000000 ) ) ;
#174 = APPLICATION_CONTEXT ( 'configuration controlled 3d designs of mechanical parts and assemblies' ) ;
#175 = DIRECTION ( 'NONE',  ( -0.0000000000000000000, -0.0000000000000000000, -1.000000000000000000 ) ) ;
ENDSEC;
END-ISO-10303-21;
