ISO-10303-21;
HEADER;
FILE_DESCRIPTION (( 'STEP AP214' ),
    '1' );
FILE_NAME ('4876-E0W.STEP',
    '2009-12-21T17:05:33',
    ( ' ' ),
    ( ' ' ),
    'SwSTEP 2.0',
    'SolidWorks 2009',
    '' );
FILE_SCHEMA (( 'AUTOMOTIVE_DESIGN' ));
ENDSEC;

DATA;
#1 = PRODUCT_DEFINITION_SHAPE ( 'NONE', 'NONE',  #318 ) ;
#2 = SHAPE_DEFINITION_REPRESENTATION ( #1, #284 ) ;
#3 =( LENGTH_UNIT ( ) NAMED_UNIT ( * ) SI_UNIT ( .MILLI., .METRE. ) );
#4 = DIRECTION ( 'NONE',  ( 0.0000000000000000000, 1.000000000000000000, 0.0000000000000000000 ) ) ;
#5 =( GEOMETRIC_REPRESENTATION_CONTEXT ( 3 ) GLOBAL_UNCERTAINTY_ASSIGNED_CONTEXT ( ( #159 ) ) GLOBAL_UNIT_ASSIGNED_CONTEXT ( ( #162, #161, #160 ) ) REPRESENTATION_CONTEXT ( 'NONE', 'WORKASPACE' ) );
#6 = PRODUCT_CONTEXT ( 'NONE', #15, 'mechanical' ) ;
#7 =( NAMED_UNIT ( * ) PLANE_ANGLE_UNIT ( ) SI_UNIT ( $, .RADIAN. ) );
#8 = APPLICATION_PROTOCOL_DEFINITION ( 'draft international standard', 'automotive_design', 1998, #15 ) ;
#9 = APPLICATION_PROTOCOL_DEFINITION ( 'draft international standard', 'automotive_design', 1998, #11 ) ;
#10 =( NAMED_UNIT ( * ) PLANE_ANGLE_UNIT ( ) SI_UNIT ( $, .RADIAN. ) );
#11 = APPLICATION_CONTEXT ( 'automotive_design' ) ;
#12 =( NAMED_UNIT ( * ) SI_UNIT ( $, .STERADIAN. ) SOLID_ANGLE_UNIT ( ) );
#13 =( NAMED_UNIT ( * ) SI_UNIT ( $, .STERADIAN. ) SOLID_ANGLE_UNIT ( ) );
#14 =( GEOMETRIC_REPRESENTATION_CONTEXT ( 3 ) GLOBAL_UNCERTAINTY_ASSIGNED_CONTEXT ( ( #70 ) ) GLOBAL_UNIT_ASSIGNED_CONTEXT ( ( #292, #10, #12 ) ) REPRESENTATION_CONTEXT ( 'NONE', 'WORKASPACE' ) );
#15 = APPLICATION_CONTEXT ( 'automotive_design' ) ;
#16 = PRODUCT ( '4876-E0W', '4876-E0W', '', ( #6 ) ) ;
#17 = ADVANCED_FACE ( 'NONE', ( #28 ), #75, .F. ) ;
#18 = ORIENTED_EDGE ( 'NONE', *, *, #61, .F. ) ;
#19 = EDGE_CURVE ( 'NONE', #46, #48, #149, .T. ) ;
#20 = ORIENTED_EDGE ( 'NONE', *, *, #19, .T. ) ;
#21 = ADVANCED_FACE ( 'NONE', ( #106 ), #142, .T. ) ;
#22 = ADVANCED_FACE ( 'NONE', ( #169 ), #124, .T. ) ;
#23 = DIRECTION ( 'NONE',  ( -1.000000000000000000, 0.0000000000000000000, 0.0000000000000000000 ) ) ;
#24 = CARTESIAN_POINT ( 'NONE',  ( 0.0000000000000000000, 0.0000000000000000000, -127.5200310262453200 ) ) ;
#25 = AXIS2_PLACEMENT_3D ( 'NONE', #24, #23, #4 ) ;
#26 = UNCERTAINTY_MEASURE_WITH_UNIT (LENGTH_MEASURE( 1.000000000000000100E-005 ), #3, 'distance_accuracy_value', 'NONE');
#27 = COLOUR_RGB ( '',0.9568627450980391500, 0.9490196078431372100, 0.9607843137254902200 ) ;
#28 = FACE_OUTER_BOUND ( 'NONE', #71, .T. ) ;
#29 = VERTEX_POINT ( 'NONE', #130 ) ;
#30 = EDGE_CURVE ( 'NONE', #48, #47, #107, .T. ) ;
#31 = ORIENTED_EDGE ( 'NONE', *, *, #102, .T. ) ;
#32 = ORIENTED_EDGE ( 'NONE', *, *, #45, .T. ) ;
#33 = VERTEX_POINT ( 'NONE', #150 ) ;
#34 = EDGE_LOOP ( 'NONE', ( #74, #20, #52, #91 ) ) ;
#35 = EDGE_LOOP ( 'NONE', ( #84, #53, #42, #43, #44, #99 ) ) ;
#36 = VERTEX_POINT ( 'NONE', #141 ) ;
#37 = ADVANCED_FACE ( 'NONE', ( #140 ), #215, .T. ) ;
#38 = EDGE_CURVE ( 'NONE', #89, #33, #182, .T. ) ;
#39 = ORIENTED_EDGE ( 'NONE', *, *, #40, .T. ) ;
#40 = EDGE_CURVE ( 'NONE', #33, #29, #209, .T. ) ;
#41 = ORIENTED_EDGE ( 'NONE', *, *, #102, .F. ) ;
#42 = ORIENTED_EDGE ( 'NONE', *, *, #83, .T. ) ;
#43 = ORIENTED_EDGE ( 'NONE', *, *, #86, .T. ) ;
#44 = ORIENTED_EDGE ( 'NONE', *, *, #19, .F. ) ;
#45 = EDGE_CURVE ( 'NONE', #29, #46, #230, .T. ) ;
#46 = VERTEX_POINT ( 'NONE', #217 ) ;
#47 = VERTEX_POINT ( 'NONE', #216 ) ;
#48 = VERTEX_POINT ( 'NONE', #180 ) ;
#49 =( LENGTH_UNIT ( ) NAMED_UNIT ( * ) SI_UNIT ( .MILLI., .METRE. ) );
#50 = MECHANICAL_DESIGN_GEOMETRIC_PRESENTATION_REPRESENTATION (  '', ( #63 ), #76 ) ;
#51 = PRESENTATION_LAYER_ASSIGNMENT (  '', '', ( #63 ) ) ;
#52 = ORIENTED_EDGE ( 'NONE', *, *, #30, .T. ) ;
#53 = ORIENTED_EDGE ( 'NONE', *, *, #54, .T. ) ;
#54 = EDGE_CURVE ( 'NONE', #33, #92, #186, .T. ) ;
#55 = ORIENTED_EDGE ( 'NONE', *, *, #54, .F. ) ;
#56 = CLOSED_SHELL ( 'NONE', ( #73, #37, #22, #72, #21, #17 ) ) ;
#57 = ORIENTED_EDGE ( 'NONE', *, *, #100, .T. ) ;
#58 = ORIENTED_EDGE ( 'NONE', *, *, #38, .T. ) ;
#59 = VERTEX_POINT ( 'NONE', #188 ) ;
#60 = EDGE_LOOP ( 'NONE', ( #57, #58, #39, #41, #87, #88 ) ) ;
#61 = EDGE_CURVE ( 'NONE', #92, #36, #206, .T. ) ;
#62 = ORIENTED_EDGE ( 'NONE', *, *, #100, .F. ) ;
#63 = STYLED_ITEM ( 'NONE', ( #64 ), #17 ) ;
#64 = PRESENTATION_STYLE_ASSIGNMENT (( #65 ) ) ;
#65 = SURFACE_STYLE_USAGE ( .BOTH. , #66 ) ;
#66 = SURFACE_SIDE_STYLE ('',( #67 ) ) ;
#67 = SURFACE_STYLE_FILL_AREA ( #79 ) ;
#68 = EDGE_LOOP ( 'NONE', ( #101, #98, #97, #62 ) ) ;
#69 = MANIFOLD_SOLID_BREP ( 'NONE', #56 ) ;
#70 = UNCERTAINTY_MEASURE_WITH_UNIT (LENGTH_MEASURE( 1.000000000000000100E-005 ), #292, 'distance_accuracy_value', 'NONE');
#71 = EDGE_LOOP ( 'NONE', ( #18, #55, #81, #82 ) ) ;
#72 = ADVANCED_FACE ( 'NONE', ( #238 ), #196, .T. ) ;
#73 = ADVANCED_FACE ( 'NONE', ( #222 ), #267, .F. ) ;
#74 = ORIENTED_EDGE ( 'NONE', *, *, #103, .F. ) ;
#75 = SPHERICAL_SURFACE ( 'NONE', #25, 126.3400000000000000 ) ;
#76 =( GEOMETRIC_REPRESENTATION_CONTEXT ( 3 ) GLOBAL_UNCERTAINTY_ASSIGNED_CONTEXT ( ( #77 ) ) GLOBAL_UNIT_ASSIGNED_CONTEXT ( ( #49, #93, #78 ) ) REPRESENTATION_CONTEXT ( 'NONE', 'WORKASPACE' ) );
#77 = UNCERTAINTY_MEASURE_WITH_UNIT (LENGTH_MEASURE( 1.000000000000000100E-005 ), #49, 'distance_accuracy_value', 'NONE');
#78 =( NAMED_UNIT ( * ) SI_UNIT ( $, .STERADIAN. ) SOLID_ANGLE_UNIT ( ) );
#79 = FILL_AREA_STYLE ('',( #80 ) ) ;
#80 = FILL_AREA_STYLE_COLOUR ( '', #27 ) ;
#81 = ORIENTED_EDGE ( 'NONE', *, *, #38, .F. ) ;
#82 = ORIENTED_EDGE ( 'NONE', *, *, #94, .T. ) ;
#83 = EDGE_CURVE ( 'NONE', #92, #59, #259, .T. ) ;
#84 = ORIENTED_EDGE ( 'NONE', *, *, #40, .F. ) ;
#85 = EDGE_CURVE ( 'NONE', #47, #104, #264, .T. ) ;
#86 = EDGE_CURVE ( 'NONE', #59, #48, #310, .T. ) ;
#87 = ORIENTED_EDGE ( 'NONE', *, *, #30, .F. ) ;
#88 = ORIENTED_EDGE ( 'NONE', *, *, #86, .F. ) ;
#89 = VERTEX_POINT ( 'NONE', #272 ) ;
#90 = ORIENTED_EDGE ( 'NONE', *, *, #85, .F. ) ;
#91 = ORIENTED_EDGE ( 'NONE', *, *, #85, .T. ) ;
#92 = VERTEX_POINT ( 'NONE', #274 ) ;
#93 =( NAMED_UNIT ( * ) PLANE_ANGLE_UNIT ( ) SI_UNIT ( $, .RADIAN. ) );
#94 = EDGE_CURVE ( 'NONE', #89, #36, #288, .T. ) ;
#95 = EDGE_LOOP ( 'NONE', ( #31, #32, #96, #90 ) ) ;
#96 = ORIENTED_EDGE ( 'NONE', *, *, #103, .T. ) ;
#97 = ORIENTED_EDGE ( 'NONE', *, *, #94, .F. ) ;
#98 = ORIENTED_EDGE ( 'NONE', *, *, #61, .T. ) ;
#99 = ORIENTED_EDGE ( 'NONE', *, *, #45, .F. ) ;
#100 = EDGE_CURVE ( 'NONE', #59, #89, #313, .T. ) ;
#101 = ORIENTED_EDGE ( 'NONE', *, *, #83, .F. ) ;
#102 = EDGE_CURVE ( 'NONE', #47, #29, #287, .T. ) ;
#103 = EDGE_CURVE ( 'NONE', #46, #104, #262, .T. ) ;
#104 = VERTEX_POINT ( 'NONE', #269 ) ;
#105 =( LENGTH_UNIT ( ) NAMED_UNIT ( * ) SI_UNIT ( .MILLI., .METRE. ) );
#106 = FACE_OUTER_BOUND ( 'NONE', #35, .T. ) ;
#107 = CIRCLE ( 'NONE', #154, 12.69999999999999900 ) ;
#108 = DIRECTION ( 'NONE',  ( 0.0000000000000000000, 1.000000000000000000, 0.0000000000000000000 ) ) ;
#109 = AXIS2_PLACEMENT_3D ( 'NONE', #113, #111, #165 ) ;
#110 = PRESENTATION_LAYER_ASSIGNMENT (  '', '', ( #173 ) ) ;
#111 = DIRECTION ( 'NONE',  ( -0.0000000000000000000, -0.0000000000000000000, 1.000000000000000000 ) ) ;
#112 = SURFACE_SIDE_STYLE ('',( #157 ) ) ;
#113 = CARTESIAN_POINT ( 'NONE',  ( 0.0000000000000000000, 0.0000000000000000000, 1.497180589072085300 ) ) ;
#114 = FILL_AREA_STYLE_COLOUR ( '', #158 ) ;
#115 =( NAMED_UNIT ( * ) PLANE_ANGLE_UNIT ( ) SI_UNIT ( $, .RADIAN. ) );
#116 = SURFACE_STYLE_USAGE ( .BOTH. , #112 ) ;
#117 = SURFACE_STYLE_FILL_AREA ( #118 ) ;
#118 = FILL_AREA_STYLE ('',( #119 ) ) ;
#119 = FILL_AREA_STYLE_COLOUR ( '', #168 ) ;
#120 = DIRECTION ( 'NONE',  ( 1.000000000000000000, 0.0000000000000000000, 0.0000000000000000000 ) ) ;
#121 = DIRECTION ( 'NONE',  ( -0.0000000000000000000, -0.0000000000000000000, 1.000000000000000000 ) ) ;
#122 = UNCERTAINTY_MEASURE_WITH_UNIT (LENGTH_MEASURE( 1.000000000000000100E-005 ), #105, 'distance_accuracy_value', 'NONE');
#123 = CARTESIAN_POINT ( 'NONE',  ( 0.0000000000000000000, 0.0000000000000000000, -248.1800310262453000 ) ) ;
#124 = SPHERICAL_SURFACE ( 'NONE', #129, 250.0000000000000000 ) ;
#125 =( GEOMETRIC_REPRESENTATION_CONTEXT ( 3 ) GLOBAL_UNCERTAINTY_ASSIGNED_CONTEXT ( ( #170 ) ) GLOBAL_UNIT_ASSIGNED_CONTEXT ( ( #174, #164, #171 ) ) REPRESENTATION_CONTEXT ( 'NONE', 'WORKASPACE' ) );
#126 = FILL_AREA_STYLE ('',( #114 ) ) ;
#127 =( NAMED_UNIT ( * ) SI_UNIT ( $, .STERADIAN. ) SOLID_ANGLE_UNIT ( ) );
#128 = DIRECTION ( 'NONE',  ( -1.000000000000000000, 0.0000000000000000000, 0.0000000000000000000 ) ) ;
#129 = AXIS2_PLACEMENT_3D ( 'NONE', #123, #128, #108 ) ;
#130 = CARTESIAN_POINT ( 'NONE',  ( -12.69999999999999900, 1.555250069354419100E-015, 1.497180589072085300 ) ) ;
#131 = PRESENTATION_LAYER_ASSIGNMENT (  '', '', ( #132 ) ) ;
#132 = STYLED_ITEM ( 'NONE', ( #133 ), #37 ) ;
#133 = PRESENTATION_STYLE_ASSIGNMENT (( #134 ) ) ;
#134 = SURFACE_STYLE_USAGE ( .BOTH. , #135 ) ;
#135 = SURFACE_SIDE_STYLE ('',( #136 ) ) ;
#136 = SURFACE_STYLE_FILL_AREA ( #137 ) ;
#137 = FILL_AREA_STYLE ('',( #138 ) ) ;
#138 = FILL_AREA_STYLE_COLOUR ( '', #139 ) ;
#139 = COLOUR_RGB ( '',0.9568627450980391500, 0.9490196078431372100, 0.9607843137254902200 ) ;
#140 = FACE_OUTER_BOUND ( 'NONE', #60, .T. ) ;
#141 = CARTESIAN_POINT ( 'NONE',  ( 0.0000000000000000000, 7.735838337095957100E-015, -1.180031026245309500 ) ) ;
#142 = CYLINDRICAL_SURFACE ( 'NONE', #167, 12.69999999999999900 ) ;
#143 = MECHANICAL_DESIGN_GEOMETRIC_PRESENTATION_REPRESENTATION (  '', ( #145 ), #125 ) ;
#144 = PRESENTATION_LAYER_ASSIGNMENT (  '', '', ( #145 ) ) ;
#145 = STYLED_ITEM ( 'NONE', ( #146 ), #22 ) ;
#146 = PRESENTATION_STYLE_ASSIGNMENT (( #147 ) ) ;
#147 = SURFACE_STYLE_USAGE ( .BOTH. , #148 ) ;
#148 = SURFACE_SIDE_STYLE ('',( #117 ) ) ;
#149 = CIRCLE ( 'NONE', #109, 12.69999999999999900 ) ;
#150 = CARTESIAN_POINT ( 'NONE',  ( -12.70000000000000300, 1.555250069354419500E-015, -1.819968973754679400 ) ) ;
#151 = DIRECTION ( 'NONE',  ( 1.000000000000000000, 0.0000000000000000000, 0.0000000000000000000 ) ) ;
#152 = DIRECTION ( 'NONE',  ( -0.0000000000000000000, -0.0000000000000000000, 1.000000000000000000 ) ) ;
#153 = CARTESIAN_POINT ( 'NONE',  ( 0.0000000000000000000, 0.0000000000000000000, 1.497180589072085300 ) ) ;
#154 = AXIS2_PLACEMENT_3D ( 'NONE', #153, #152, #151 ) ;
#155 = PRESENTATION_STYLE_ASSIGNMENT (( #116 ) ) ;
#156 =( GEOMETRIC_REPRESENTATION_CONTEXT ( 3 ) GLOBAL_UNCERTAINTY_ASSIGNED_CONTEXT ( ( #122 ) ) GLOBAL_UNIT_ASSIGNED_CONTEXT ( ( #105, #115, #127 ) ) REPRESENTATION_CONTEXT ( 'NONE', 'WORKASPACE' ) );
#157 = SURFACE_STYLE_FILL_AREA ( #126 ) ;
#158 = COLOUR_RGB ( '',0.9568627450980391500, 0.9490196078431372100, 0.9607843137254902200 ) ;
#159 = UNCERTAINTY_MEASURE_WITH_UNIT (LENGTH_MEASURE( 1.000000000000000100E-005 ), #162, 'distance_accuracy_value', 'NONE');
#160 =( NAMED_UNIT ( * ) SI_UNIT ( $, .STERADIAN. ) SOLID_ANGLE_UNIT ( ) );
#161 =( NAMED_UNIT ( * ) PLANE_ANGLE_UNIT ( ) SI_UNIT ( $, .RADIAN. ) );
#162 =( LENGTH_UNIT ( ) NAMED_UNIT ( * ) SI_UNIT ( .MILLI., .METRE. ) );
#163 = MECHANICAL_DESIGN_GEOMETRIC_PRESENTATION_REPRESENTATION (  '', ( #132 ), #5 ) ;
#164 =( NAMED_UNIT ( * ) PLANE_ANGLE_UNIT ( ) SI_UNIT ( $, .RADIAN. ) );
#165 = DIRECTION ( 'NONE',  ( 1.000000000000000000, 0.0000000000000000000, 0.0000000000000000000 ) ) ;
#166 = CARTESIAN_POINT ( 'NONE',  ( 0.0000000000000000000, 0.0000000000000000000, 9.225072728595733900 ) ) ;
#167 = AXIS2_PLACEMENT_3D ( 'NONE', #166, #121, #120 ) ;
#168 = COLOUR_RGB ( '',0.9568627450980391500, 0.9490196078431372100, 0.9607843137254902200 ) ;
#169 = FACE_OUTER_BOUND ( 'NONE', #95, .T. ) ;
#170 = UNCERTAINTY_MEASURE_WITH_UNIT (LENGTH_MEASURE( 1.000000000000000100E-005 ), #174, 'distance_accuracy_value', 'NONE');
#171 =( NAMED_UNIT ( * ) SI_UNIT ( $, .STERADIAN. ) SOLID_ANGLE_UNIT ( ) );
#172 = MECHANICAL_DESIGN_GEOMETRIC_PRESENTATION_REPRESENTATION (  '', ( #173 ), #156 ) ;
#173 = STYLED_ITEM ( 'NONE', ( #155 ), #21 ) ;
#174 =( LENGTH_UNIT ( ) NAMED_UNIT ( * ) SI_UNIT ( .MILLI., .METRE. ) );
#175 = FILL_AREA_STYLE ('',( #176 ) ) ;
#176 = FILL_AREA_STYLE_COLOUR ( '', #207 ) ;
#177 = DIRECTION ( 'NONE',  ( -1.224606353822377300E-016, -1.000000000000000000, 0.0000000000000000000 ) ) ;
#178 = DIRECTION ( 'NONE',  ( -1.000000000000000000, 1.224606353822377300E-016, 0.0000000000000000000 ) ) ;
#179 = DIRECTION ( 'NONE',  ( -0.0000000000000000000, -0.0000000000000000000, 1.000000000000000000 ) ) ;
#180 = CARTESIAN_POINT ( 'NONE',  ( 12.69999999999999900, 0.0000000000000000000, 1.497180589072085300 ) ) ;
#181 = CARTESIAN_POINT ( 'NONE',  ( 0.0000000000000000000, 0.0000000000000000000, 9.225072728595733900 ) ) ;
#182 = CIRCLE ( 'NONE', #213, 12.70000000000000100 ) ;
#183 = DIRECTION ( 'NONE',  ( -0.0000000000000000000, -0.0000000000000000000, 1.000000000000000000 ) ) ;
#184 = CARTESIAN_POINT ( 'NONE',  ( 0.0000000000000000000, 0.0000000000000000000, -1.819968973754679400 ) ) ;
#185 = AXIS2_PLACEMENT_3D ( 'NONE', #184, #183, #189 ) ;
#186 = CIRCLE ( 'NONE', #185, 12.70000000000000100 ) ;
#187 = CARTESIAN_POINT ( 'NONE',  ( 0.0000000000000000000, 0.0000000000000000000, -127.5200310262453200 ) ) ;
#188 = CARTESIAN_POINT ( 'NONE',  ( 12.70000000000000100, 0.0000000000000000000, -1.819968973754679400 ) ) ;
#189 = DIRECTION ( 'NONE',  ( 1.000000000000000000, 0.0000000000000000000, 0.0000000000000000000 ) ) ;
#190 = DIRECTION ( 'NONE',  ( 1.000000000000000000, 0.0000000000000000000, 0.0000000000000000000 ) ) ;
#191 = FILL_AREA_STYLE_COLOUR ( '', #237 ) ;
#192 =( GEOMETRIC_REPRESENTATION_CONTEXT ( 3 ) GLOBAL_UNCERTAINTY_ASSIGNED_CONTEXT ( ( #210 ) ) GLOBAL_UNIT_ASSIGNED_CONTEXT ( ( #202, #229, #228 ) ) REPRESENTATION_CONTEXT ( 'NONE', 'WORKASPACE' ) );
#193 = DIRECTION ( 'NONE',  ( 1.000000000000000000, 0.0000000000000000000, 0.0000000000000000000 ) ) ;
#194 = DIRECTION ( 'NONE',  ( -0.0000000000000000000, -0.0000000000000000000, 1.000000000000000000 ) ) ;
#195 = DIRECTION ( 'NONE',  ( 1.000000000000000000, 0.0000000000000000000, 0.0000000000000000000 ) ) ;
#196 = SPHERICAL_SURFACE ( 'NONE', #221, 250.0000000000000000 ) ;
#197 =( GEOMETRIC_REPRESENTATION_CONTEXT ( 3 ) GLOBAL_UNCERTAINTY_ASSIGNED_CONTEXT ( ( #211 ) ) GLOBAL_UNIT_ASSIGNED_CONTEXT ( ( #199, #208, #212 ) ) REPRESENTATION_CONTEXT ( 'NONE', 'WORKASPACE' ) );
#198 = CARTESIAN_POINT ( 'NONE',  ( -12.69999999999999900, 1.555250069354419100E-015, 9.225072728595733900 ) ) ;
#199 =( LENGTH_UNIT ( ) NAMED_UNIT ( * ) SI_UNIT ( .MILLI., .METRE. ) );
#200 = MECHANICAL_DESIGN_GEOMETRIC_PRESENTATION_REPRESENTATION (  '', ( #231 ), #197 ) ;
#201 = PRESENTATION_LAYER_ASSIGNMENT (  '', '', ( #231 ) ) ;
#202 =( LENGTH_UNIT ( ) NAMED_UNIT ( * ) SI_UNIT ( .MILLI., .METRE. ) );
#203 = MECHANICAL_DESIGN_GEOMETRIC_PRESENTATION_REPRESENTATION (  '', ( #250 ), #192 ) ;
#204 = PRESENTATION_LAYER_ASSIGNMENT (  '', '', ( #250 ) ) ;
#205 = AXIS2_PLACEMENT_3D ( 'NONE', #187, #178, #177 ) ;
#206 = CIRCLE ( 'NONE', #205, 126.3400000000000000 ) ;
#207 = COLOUR_RGB ( '',0.7960784313725489700, 0.8235294117647058400, 0.9372549019607843100 ) ;
#208 =( NAMED_UNIT ( * ) PLANE_ANGLE_UNIT ( ) SI_UNIT ( $, .RADIAN. ) );
#209 = LINE ( 'NONE', #198, #225 ) ;
#210 = UNCERTAINTY_MEASURE_WITH_UNIT (LENGTH_MEASURE( 1.000000000000000100E-005 ), #202, 'distance_accuracy_value', 'NONE');
#211 = UNCERTAINTY_MEASURE_WITH_UNIT (LENGTH_MEASURE( 1.000000000000000100E-005 ), #199, 'distance_accuracy_value', 'NONE');
#212 =( NAMED_UNIT ( * ) SI_UNIT ( $, .STERADIAN. ) SOLID_ANGLE_UNIT ( ) );
#213 = AXIS2_PLACEMENT_3D ( 'NONE', #214, #194, #193 ) ;
#214 = CARTESIAN_POINT ( 'NONE',  ( 0.0000000000000000000, 0.0000000000000000000, -1.819968973754679400 ) ) ;
#215 = CYLINDRICAL_SURFACE ( 'NONE', #226, 12.69999999999999900 ) ;
#216 = CARTESIAN_POINT ( 'NONE',  ( 0.0000000000000000000, 12.70000000000043600, 1.497180589072084400 ) ) ;
#217 = CARTESIAN_POINT ( 'NONE',  ( -1.555250069354472700E-015, -12.70000000000043600, 1.497180589072084400 ) ) ;
#218 = CARTESIAN_POINT ( 'NONE',  ( 0.0000000000000000000, 0.0000000000000000000, 1.497180589072085300 ) ) ;
#219 = DIRECTION ( 'NONE',  ( -1.000000000000000000, 0.0000000000000000000, 0.0000000000000000000 ) ) ;
#220 = CARTESIAN_POINT ( 'NONE',  ( 0.0000000000000000000, 0.0000000000000000000, -248.1800310262453000 ) ) ;
#221 = AXIS2_PLACEMENT_3D ( 'NONE', #220, #219, #249 ) ;
#222 = FACE_OUTER_BOUND ( 'NONE', #68, .T. ) ;
#223 = FILL_AREA_STYLE_COLOUR ( '', #248 ) ;
#224 = AXIS2_PLACEMENT_3D ( 'NONE', #218, #179, #195 ) ;
#225 = VECTOR ( 'NONE', #239, 1000.000000000000000 ) ;
#226 = AXIS2_PLACEMENT_3D ( 'NONE', #181, #227, #190 ) ;
#227 = DIRECTION ( 'NONE',  ( -0.0000000000000000000, -0.0000000000000000000, 1.000000000000000000 ) ) ;
#228 =( NAMED_UNIT ( * ) SI_UNIT ( $, .STERADIAN. ) SOLID_ANGLE_UNIT ( ) );
#229 =( NAMED_UNIT ( * ) PLANE_ANGLE_UNIT ( ) SI_UNIT ( $, .RADIAN. ) );
#230 = CIRCLE ( 'NONE', #224, 12.69999999999999900 ) ;
#231 = STYLED_ITEM ( 'NONE', ( #232 ), #72 ) ;
#232 = PRESENTATION_STYLE_ASSIGNMENT (( #233 ) ) ;
#233 = SURFACE_STYLE_USAGE ( .BOTH. , #234 ) ;
#234 = SURFACE_SIDE_STYLE ('',( #235 ) ) ;
#235 = SURFACE_STYLE_FILL_AREA ( #236 ) ;
#236 = FILL_AREA_STYLE ('',( #191 ) ) ;
#237 = COLOUR_RGB ( '',0.9568627450980391500, 0.9490196078431372100, 0.9607843137254902200 ) ;
#238 = FACE_OUTER_BOUND ( 'NONE', #34, .T. ) ;
#239 = DIRECTION ( 'NONE',  ( -0.0000000000000000000, -0.0000000000000000000, 1.000000000000000000 ) ) ;
#240 = MECHANICAL_DESIGN_GEOMETRIC_PRESENTATION_REPRESENTATION (  '', ( #242 ), #275 ) ;
#241 = PRESENTATION_LAYER_ASSIGNMENT (  '', '', ( #242 ) ) ;
#242 = STYLED_ITEM ( 'NONE', ( #243 ), #73 ) ;
#243 = PRESENTATION_STYLE_ASSIGNMENT (( #244 ) ) ;
#244 = SURFACE_STYLE_USAGE ( .BOTH. , #245 ) ;
#245 = SURFACE_SIDE_STYLE ('',( #246 ) ) ;
#246 = SURFACE_STYLE_FILL_AREA ( #247 ) ;
#247 = FILL_AREA_STYLE ('',( #223 ) ) ;
#248 = COLOUR_RGB ( '',0.9568627450980391500, 0.9490196078431372100, 0.9607843137254902200 ) ;
#249 = DIRECTION ( 'NONE',  ( 0.0000000000000000000, 1.000000000000000000, 0.0000000000000000000 ) ) ;
#250 = STYLED_ITEM ( 'NONE', ( #251 ), #69 ) ;
#251 = PRESENTATION_STYLE_ASSIGNMENT (( #252 ) ) ;
#252 = SURFACE_STYLE_USAGE ( .BOTH. , #253 ) ;
#253 = SURFACE_SIDE_STYLE ('',( #254 ) ) ;
#254 = SURFACE_STYLE_FILL_AREA ( #175 ) ;
#255 = CARTESIAN_POINT ( 'NONE',  ( 0.0000000000000000000, 0.0000000000000000000, 1.497180589072085300 ) ) ;
#256 = DIRECTION ( 'NONE',  ( 1.000000000000000000, 0.0000000000000000000, 0.0000000000000000000 ) ) ;
#257 = DIRECTION ( 'NONE',  ( -0.0000000000000000000, -0.0000000000000000000, 1.000000000000000000 ) ) ;
#258 = AXIS2_PLACEMENT_3D ( 'NONE', #276, #257, #256 ) ;
#259 = CIRCLE ( 'NONE', #283, 12.70000000000000100 ) ;
#260 = CARTESIAN_POINT ( 'NONE',  ( 0.0000000000000000000, 0.0000000000000000000, -248.1800310262453000 ) ) ;
#261 = AXIS2_PLACEMENT_3D ( 'NONE', #260, #271, #270 ) ;
#262 = CIRCLE ( 'NONE', #261, 250.0000000000000000 ) ;
#263 = CARTESIAN_POINT ( 'NONE',  ( 0.0000000000000000000, 0.0000000000000000000, -248.1800310262453000 ) ) ;
#264 = CIRCLE ( 'NONE', #291, 250.0000000000000000 ) ;
#265 = DIRECTION ( 'NONE',  ( -1.000000000000000000, 0.0000000000000000000, 0.0000000000000000000 ) ) ;
#266 =( NAMED_UNIT ( * ) PLANE_ANGLE_UNIT ( ) SI_UNIT ( $, .RADIAN. ) );
#267 = SPHERICAL_SURFACE ( 'NONE', #311, 126.3400000000000000 ) ;
#268 = DIRECTION ( 'NONE',  ( 1.000000000000000000, 0.0000000000000000000, 0.0000000000000000000 ) ) ;
#269 = CARTESIAN_POINT ( 'NONE',  ( 0.0000000000000000000, 1.530757942277971600E-014, 1.819968973754693100 ) ) ;
#270 = DIRECTION ( 'NONE',  ( -1.224606353822377300E-016, -1.000000000000000000, 0.0000000000000000000 ) ) ;
#271 = DIRECTION ( 'NONE',  ( -1.000000000000000000, 1.224606353822377300E-016, 0.0000000000000000000 ) ) ;
#272 = CARTESIAN_POINT ( 'NONE',  ( 0.0000000000000000000, 12.70000000000016400, -1.819968973754686200 ) ) ;
#273 = DIRECTION ( 'NONE',  ( -0.0000000000000000000, -0.0000000000000000000, 1.000000000000000000 ) ) ;
#274 = CARTESIAN_POINT ( 'NONE',  ( -1.555250069354439400E-015, -12.70000000000016400, -1.819968973754686200 ) ) ;
#275 =( GEOMETRIC_REPRESENTATION_CONTEXT ( 3 ) GLOBAL_UNCERTAINTY_ASSIGNED_CONTEXT ( ( #26 ) ) GLOBAL_UNIT_ASSIGNED_CONTEXT ( ( #3, #7, #13 ) ) REPRESENTATION_CONTEXT ( 'NONE', 'WORKASPACE' ) );
#276 = CARTESIAN_POINT ( 'NONE',  ( 0.0000000000000000000, 0.0000000000000000000, -1.819968973754679400 ) ) ;
#277 = DIRECTION ( 'NONE',  ( 0.0000000000000000000, 1.000000000000000000, 0.0000000000000000000 ) ) ;
#278 = UNCERTAINTY_MEASURE_WITH_UNIT (LENGTH_MEASURE( 1.000000000000000100E-005 ), #303, 'distance_accuracy_value', 'NONE');
#279 =( NAMED_UNIT ( * ) SI_UNIT ( $, .STERADIAN. ) SOLID_ANGLE_UNIT ( ) );
#280 = DIRECTION ( 'NONE',  ( 1.000000000000000000, 0.0000000000000000000, 0.0000000000000000000 ) ) ;
#281 = DIRECTION ( 'NONE',  ( -0.0000000000000000000, -0.0000000000000000000, 1.000000000000000000 ) ) ;
#282 = CARTESIAN_POINT ( 'NONE',  ( 0.0000000000000000000, 0.0000000000000000000, -1.819968973754679400 ) ) ;
#283 = AXIS2_PLACEMENT_3D ( 'NONE', #282, #314, #268 ) ;
#284 = ADVANCED_BREP_SHAPE_REPRESENTATION ( '4876-E0W', ( #69, #319 ), #285 ) ;
#285 =( GEOMETRIC_REPRESENTATION_CONTEXT ( 3 ) GLOBAL_UNCERTAINTY_ASSIGNED_CONTEXT ( ( #278 ) ) GLOBAL_UNIT_ASSIGNED_CONTEXT ( ( #303, #266, #279 ) ) REPRESENTATION_CONTEXT ( 'NONE', 'WORKASPACE' ) );
#286 = AXIS2_PLACEMENT_3D ( 'NONE', #255, #281, #280 ) ;
#287 = CIRCLE ( 'NONE', #286, 12.69999999999999900 ) ;
#288 = CIRCLE ( 'NONE', #307, 126.3400000000000000 ) ;
#289 = DIRECTION ( 'NONE',  ( 0.0000000000000000000, 0.0000000000000000000, -1.000000000000000000 ) ) ;
#290 = DIRECTION ( 'NONE',  ( 1.000000000000000000, 0.0000000000000000000, 0.0000000000000000000 ) ) ;
#291 = AXIS2_PLACEMENT_3D ( 'NONE', #263, #290, #289 ) ;
#292 =( LENGTH_UNIT ( ) NAMED_UNIT ( * ) SI_UNIT ( .MILLI., .METRE. ) );
#293 = MECHANICAL_DESIGN_GEOMETRIC_PRESENTATION_REPRESENTATION (  '', ( #295 ), #14 ) ;
#294 = PRESENTATION_LAYER_ASSIGNMENT (  '', '', ( #295 ) ) ;
#295 = STYLED_ITEM ( 'NONE', ( #296 ), #284 ) ;
#296 = PRESENTATION_STYLE_ASSIGNMENT (( #297 ) ) ;
#297 = SURFACE_STYLE_USAGE ( .BOTH. , #298 ) ;
#298 = SURFACE_SIDE_STYLE ('',( #299 ) ) ;
#299 = SURFACE_STYLE_FILL_AREA ( #300 ) ;
#300 = FILL_AREA_STYLE ('',( #301 ) ) ;
#301 = FILL_AREA_STYLE_COLOUR ( '', #302 ) ;
#302 = COLOUR_RGB ( '',0.7960784313725489700, 0.8235294117647058400, 0.9372549019607843100 ) ;
#303 =( LENGTH_UNIT ( ) NAMED_UNIT ( * ) SI_UNIT ( .MILLI., .METRE. ) );
#304 = DIRECTION ( 'NONE',  ( 0.0000000000000000000, 0.0000000000000000000, -1.000000000000000000 ) ) ;
#305 = DIRECTION ( 'NONE',  ( 1.000000000000000000, -0.0000000000000000000, 0.0000000000000000000 ) ) ;
#306 = CARTESIAN_POINT ( 'NONE',  ( 0.0000000000000000000, 0.0000000000000000000, -127.5200310262453200 ) ) ;
#307 = AXIS2_PLACEMENT_3D ( 'NONE', #306, #305, #304 ) ;
#308 = VECTOR ( 'NONE', #273, 1000.000000000000000 ) ;
#309 = CARTESIAN_POINT ( 'NONE',  ( 12.69999999999999900, 0.0000000000000000000, 9.225072728595733900 ) ) ;
#310 = LINE ( 'NONE', #309, #308 ) ;
#311 = AXIS2_PLACEMENT_3D ( 'NONE', #312, #265, #277 ) ;
#312 = CARTESIAN_POINT ( 'NONE',  ( 0.0000000000000000000, 0.0000000000000000000, -127.5200310262453200 ) ) ;
#313 = CIRCLE ( 'NONE', #258, 12.70000000000000100 ) ;
#314 = DIRECTION ( 'NONE',  ( -0.0000000000000000000, -0.0000000000000000000, 1.000000000000000000 ) ) ;
#315 = PRODUCT_RELATED_PRODUCT_CATEGORY ( 'part', '', ( #16 ) ) ;
#316 = PRODUCT_DEFINITION_FORMATION_WITH_SPECIFIED_SOURCE ( 'ANY', '', #16, .NOT_KNOWN. ) ;
#317 = PRODUCT_DEFINITION_CONTEXT ( 'detailed design', #11, 'design' ) ;
#318 = PRODUCT_DEFINITION ( 'UNKNOWN', '', #316, #317 ) ;
#319 = AXIS2_PLACEMENT_3D ( 'NONE', #320, #321, #322 ) ;
#320 = CARTESIAN_POINT ( 'NONE',  ( 0.0000000000000000000, 0.0000000000000000000, 0.0000000000000000000 ) ) ;
#321 = DIRECTION ( 'NONE',  ( 0.0000000000000000000, 0.0000000000000000000, 1.000000000000000000 ) ) ;
#322 = DIRECTION ( 'NONE',  ( 1.000000000000000000, 0.0000000000000000000, 0.0000000000000000000 ) ) ;
ENDSEC;
END-ISO-10303-21;
