ISO-10303-21;
HEADER;
FILE_DESCRIPTION (( 'STEP AP203' ),
    '1' );
FILE_NAME ('20135-E0W.STEP',
    '2019-07-16T11:12:14',
    ( '' ),
    ( '' ),
    'SwSTEP 2.0',
    'SolidWorks 2018',
    '' );
FILE_SCHEMA (( 'CONFIG_CONTROL_DESIGN' ));
ENDSEC;

DATA;
#1 = FACE_OUTER_BOUND ( 'NONE', #172, .T. ) ;
#2 = COORDINATED_UNIVERSAL_TIME_OFFSET ( 5, 0, .BEHIND. ) ;
#3 = CARTESIAN_POINT ( 'NONE',  ( 0.0000000000000000000, 6.710842818946632394E-17, -0.1625000000000001998 ) ) ;
#4 = AXIS2_PLACEMENT_3D ( 'NONE', #214, #213, #168 ) ;
#5 = ORIENTED_EDGE ( 'NONE', *, *, #207, .F. ) ;
#6 = PERSON_AND_ORGANIZATION ( #23, #210 ) ;
#7 = CONICAL_SURFACE ( 'NONE', #222, 1.250000000000000444, 0.7853981633974613796 ) ;
#8 = DIRECTION ( 'NONE',  ( 0.0000000000000000000, -3.061515884555941666E-16, 1.000000000000000000 ) ) ;
#9 = CARTESIAN_POINT ( 'NONE',  ( 1.543054966925664089E-16, 1.250000000000000444, -0.1624999999999998113 ) ) ;
#10 = ORIENTED_EDGE ( 'NONE', *, *, #263, .F. ) ;
#11 = EDGE_CURVE ( 'NONE', #77, #36, #60, .T. ) ;
#12 = CARTESIAN_POINT ( 'NONE',  ( 1.531316882443955053E-16, -1.250415126639059293, 0.04124612076231279345 ) ) ;
#13 = DIRECTION ( 'NONE',  ( -0.0000000000000000000, 3.061515884555961881E-16, -1.000000000000000000 ) ) ;
#14 = ORIENTED_EDGE ( 'NONE', *, *, #106, .F. ) ;
#15 = PRODUCT_DEFINITION_SHAPE ( 'NONE', 'NONE',  #242 ) ;
#16 = VERTEX_POINT ( 'NONE', #137 ) ;
#17 = DIRECTION ( 'NONE',  ( -0.0000000000000000000, 3.061515884555943146E-16, -1.000000000000000000 ) ) ;
#18 = APPROVAL ( #203, 'UNSPECIFIED' ) ;
#19 = MECHANICAL_CONTEXT ( 'NONE', #246, 'mechanical' ) ;
#20 = DIRECTION ( 'NONE',  ( 0.0000000000000000000, 1.000000000000000000, 2.132419761495767782E-16 ) ) ;
#21 = DIRECTION ( 'NONE',  ( -1.224646799147353207E-16, 1.000000000000000000, 0.0000000000000000000 ) ) ;
#22 = VECTOR ( 'NONE', #80, 100.0000000000000000 ) ;
#23 = PERSON ( 'UNSPECIFIED', 'UNSPECIFIED', 'UNSPECIFIED', ('UNSPECIFIED'), ('UNSPECIFIED'), ('UNSPECIFIED') ) ;
#24 = CLOSED_SHELL ( 'NONE', ( #130, #28, #136, #183, #235, #277, #180, #89, #251 ) ) ;
#25 = PERSON_AND_ORGANIZATION ( #23, #210 ) ;
#26 = CONICAL_SURFACE ( 'NONE', #138, 1.250000000000000444, 0.7853981633974613796 ) ;
#27 = EDGE_LOOP ( 'NONE', ( #298, #107, #84, #87 ) ) ;
#28 = ADVANCED_FACE ( 'NONE', ( #292 ), #7, .T. ) ;
#29 = EDGE_CURVE ( 'NONE', #129, #53, #150, .T. ) ;
#30 = PERSON_AND_ORGANIZATION ( #23, #210 ) ;
#31 = CC_DESIGN_PERSON_AND_ORGANIZATION_ASSIGNMENT ( #59, #97, ( #156 ) ) ;
#32 = CARTESIAN_POINT ( 'NONE',  ( 1.555301434917136362E-16, -1.269999999999998241, 0.01738054094702584651 ) ) ;
#33 = VERTEX_POINT ( 'NONE', #115 ) ;
#34 = CARTESIAN_POINT ( 'NONE',  ( 1.555301434917136362E-16, -1.269999999999998241, -0.1425000000000032907 ) ) ;
#35 = DIRECTION ( 'NONE',  ( 0.0000000000000000000, -3.061515884555961881E-16, 1.000000000000000000 ) ) ;
#36 = VERTEX_POINT ( 'NONE', #234 ) ;
#37 =( NAMED_UNIT ( * ) SI_UNIT ( $, .STERADIAN. ) SOLID_ANGLE_UNIT ( ) );
#38 = DIRECTION ( 'NONE',  ( 0.0000000000000000000, -1.000000000000000000, -3.051986430421798178E-16 ) ) ;
#39 = EDGE_LOOP ( 'NONE', ( #14, #229, #41, #139 ) ) ;
#40 = AXIS2_PLACEMENT_3D ( 'NONE', #123, #265, #61 ) ;
#41 = ORIENTED_EDGE ( 'NONE', *, *, #175, .F. ) ;
#42 = EDGE_CURVE ( 'NONE', #152, #223, #245, .T. ) ;
#43 = SECURITY_CLASSIFICATION_LEVEL ( 'unclassified' ) ;
#44 = ORIENTED_EDGE ( 'NONE', *, *, #128, .F. ) ;
#45 = CIRCLE ( 'NONE', #99, 1.250415126639054852 ) ;
#46 = EDGE_CURVE ( 'NONE', #36, #16, #173, .T. ) ;
#47 = PERSON_AND_ORGANIZATION ( #23, #210 ) ;
#48 = AXIS2_PLACEMENT_3D ( 'NONE', #58, #220, #289 ) ;
#49 = AXIS2_PLACEMENT_3D ( 'NONE', #262, #143, #55 ) ;
#50 = ORIENTED_EDGE ( 'NONE', *, *, #56, .F. ) ;
#51 = CALENDAR_DATE ( 2019, 16, 7 ) ;
#52 = DIRECTION ( 'NONE',  ( 0.0000000000000000000, -3.061515884555941666E-16, 1.000000000000000000 ) ) ;
#53 = VERTEX_POINT ( 'NONE', #9 ) ;
#54 = CARTESIAN_POINT ( 'NONE',  ( 0.0000000000000000000, 6.710842818946632394E-17, -0.1625000000000001998 ) ) ;
#55 = DIRECTION ( 'NONE',  ( 0.0000000000000000000, -1.000000000000000000, -3.051986430421798178E-16 ) ) ;
#56 = EDGE_CURVE ( 'NONE', #53, #129, #110, .T. ) ;
#57 = ADVANCED_BREP_SHAPE_REPRESENTATION ( '20135-E0W', ( #253, #48 ), #209 ) ;
#58 = CARTESIAN_POINT ( 'NONE',  ( 0.0000000000000000000, 0.0000000000000000000, 0.0000000000000000000 ) ) ;
#59 = PERSON_AND_ORGANIZATION ( #23, #210 ) ;
#60 = LINE ( 'NONE', #32, #179 ) ;
#61 = DIRECTION ( 'NONE',  ( 0.0000000000000000000, 1.000000000000000000, 3.061515884555943146E-16 ) ) ;
#62 = ORIENTED_EDGE ( 'NONE', *, *, #83, .T. ) ;
#63 = COORDINATED_UNIVERSAL_TIME_OFFSET ( 5, 0, .BEHIND. ) ;
#64 = PERSON_AND_ORGANIZATION_ROLE ( 'creator' ) ;
#65 = ORIENTED_EDGE ( 'NONE', *, *, #181, .T. ) ;
#66 = LOCAL_TIME ( 7, 12, 14.00000000000000000, #157 ) ;
#67 = APPROVAL ( #296, 'UNSPECIFIED' ) ;
#68 = ORIENTED_EDGE ( 'NONE', *, *, #29, .T. ) ;
#69 = PERSON_AND_ORGANIZATION ( #23, #210 ) ;
#70 = CIRCLE ( 'NONE', #4, 6.508000000000000007 ) ;
#71 = DIRECTION ( 'NONE',  ( -0.0000000000000000000, 3.061515884555943146E-16, -1.000000000000000000 ) ) ;
#72 = DIRECTION ( 'NONE',  ( 0.0000000000000000000, 1.000000000000000000, 3.051986430421798178E-16 ) ) ;
#73 = FACE_OUTER_BOUND ( 'NONE', #279, .T. ) ;
#74 = DIRECTION ( 'NONE',  ( 0.0000000000000000000, 1.000000000000000000, 3.078111924852433693E-16 ) ) ;
#75 = DIRECTION ( 'NONE',  ( 0.0000000000000000000, -1.000000000000000000, -3.122502256758251784E-16 ) ) ;
#76 = CARTESIAN_POINT ( 'NONE',  ( 0.0000000000000000000, 7.645829770090036519E-16, -6.345499999999981711 ) ) ;
#77 = VERTEX_POINT ( 'NONE', #12 ) ;
#78 = DATE_AND_TIME ( #88, #92 ) ;
#79 = APPLICATION_PROTOCOL_DEFINITION ( 'international standard', 'config_control_design', 1994, #221 ) ;
#80 = DIRECTION ( 'NONE',  ( -0.0000000000000000000, 3.061515884555943146E-16, -1.000000000000000000 ) ) ;
#81 = ORIENTED_EDGE ( 'NONE', *, *, #83, .F. ) ;
#82 = VECTOR ( 'NONE', #141, 100.0000000000000142 ) ;
#83 = EDGE_CURVE ( 'NONE', #33, #255, #70, .T. ) ;
#84 = ORIENTED_EDGE ( 'NONE', *, *, #297, .T. ) ;
#85 = APPROVAL_STATUS ( 'not_yet_approved' ) ;
#86 = EDGE_CURVE ( 'NONE', #129, #152, #208, .T. ) ;
#87 = ORIENTED_EDGE ( 'NONE', *, *, #128, .T. ) ;
#88 = CALENDAR_DATE ( 2019, 16, 7 ) ;
#89 = ADVANCED_FACE ( 'NONE', ( #73 ), #26, .T. ) ;
#90 = DIRECTION ( 'NONE',  ( 0.0000000000000000000, 1.000000000000000000, 3.073328992872300312E-16 ) ) ;
#91 = CONICAL_SURFACE ( 'NONE', #111, 1.269999999999998241, 0.6871958049281585712 ) ;
#92 = LOCAL_TIME ( 7, 12, 14.00000000000000000, #2 ) ;
#93 = DIRECTION ( 'NONE',  ( 0.0000000000000000000, -3.061515884555941666E-16, 1.000000000000000000 ) ) ;
#94 = CARTESIAN_POINT ( 'NONE',  ( 0.0000000000000000000, 6.098539642035527335E-17, -0.1425000000000029021 ) ) ;
#95 = DIRECTION ( 'NONE',  ( -0.0000000000000000000, 3.061515884555943146E-16, -1.000000000000000000 ) ) ;
#96 = ORIENTED_EDGE ( 'NONE', *, *, #42, .T. ) ;
#97 = PERSON_AND_ORGANIZATION_ROLE ( 'design_owner' ) ;
#98 = PLANE ( 'NONE',  #40 ) ;
#99 = AXIS2_PLACEMENT_3D ( 'NONE', #174, #269, #218 ) ;
#100 = ORIENTED_EDGE ( 'NONE', *, *, #56, .T. ) ;
#101 = DIRECTION ( 'NONE',  ( -0.0000000000000000000, 3.061515884555943146E-16, -1.000000000000000000 ) ) ;
#102 = AXIS2_PLACEMENT_3D ( 'NONE', #287, #95, #217 ) ;
#103 = DATE_TIME_ROLE ( 'creation_date' ) ;
#104 = APPROVAL_ROLE ( '' ) ;
#105 = EDGE_LOOP ( 'NONE', ( #50, #281, #178, #192 ) ) ;
#106 = EDGE_CURVE ( 'NONE', #77, #255, #256, .T. ) ;
#107 = ORIENTED_EDGE ( 'NONE', *, *, #46, .T. ) ;
#108 = DATE_AND_TIME ( #51, #230 ) ;
#109 = DATE_AND_TIME ( #153, #227 ) ;
#110 = CIRCLE ( 'NONE', #228, 1.250000000000000444 ) ;
#111 = AXIS2_PLACEMENT_3D ( 'NONE', #293, #169, #151 ) ;
#112 = CARTESIAN_POINT ( 'NONE',  ( 0.0000000000000000000, 6.098539642035527335E-17, -0.1425000000000029021 ) ) ;
#113 = EDGE_LOOP ( 'NONE', ( #81, #290, #243 ) ) ;
#114 = UNCERTAINTY_MEASURE_WITH_UNIT (LENGTH_MEASURE( 1.000000000000000082E-05 ), #122, 'distance_accuracy_value', 'NONE');
#115 = CARTESIAN_POINT ( 'NONE',  ( 0.0000000000000000000, -8.293514922174551531E-16, 0.1625000000000181855 ) ) ;
#116 = CARTESIAN_POINT ( 'NONE',  ( 0.0000000000000000000, 1.203771484628260935E-17, 0.01738054094702623509 ) ) ;
#117 = CC_DESIGN_APPROVAL ( #18, ( #160 ) ) ;
#118 = CARTESIAN_POINT ( 'NONE',  ( 0.0000000000000000000, 1.250415126639056851, 0.04124612076231318203 ) ) ;
#119 = ORIENTED_EDGE ( 'NONE', *, *, #278, .F. ) ;
#120 = PERSON_AND_ORGANIZATION ( #23, #210 ) ;
#121 = SPHERICAL_SURFACE ( 'NONE', #236, 6.508000000000000007 ) ;
#122 =( LENGTH_UNIT ( ) NAMED_UNIT ( * ) SI_UNIT ( .CENTI., .METRE. ) );
#123 = CARTESIAN_POINT ( 'NONE',  ( 0.0000000000000000000, 6.710842818946632394E-17, -0.1625000000000001998 ) ) ;
#124 = DIRECTION ( 'NONE',  ( 1.000000000000000000, 0.0000000000000000000, -0.0000000000000000000 ) ) ;
#125 = PRODUCT_RELATED_PRODUCT_CATEGORY ( 'detail', '', ( #156 ) ) ;
#126 = ORIENTED_EDGE ( 'NONE', *, *, #146, .T. ) ;
#127 = VECTOR ( 'NONE', #17, 100.0000000000000000 ) ;
#128 = EDGE_CURVE ( 'NONE', #223, #152, #132, .T. ) ;
#129 = VERTEX_POINT ( 'NONE', #264 ) ;
#130 = ADVANCED_FACE ( 'NONE', ( #186 ), #261, .T. ) ;
#131 = AXIS2_PLACEMENT_3D ( 'NONE', #116, #13, #38 ) ;
#132 = CIRCLE ( 'NONE', #270, 1.269999999999998241 ) ;
#133 = DIRECTION ( 'NONE',  ( 0.0000000000000000000, -1.000000000000000000, -3.122502256758251784E-16 ) ) ;
#134 = ORIENTED_EDGE ( 'NONE', *, *, #297, .F. ) ;
#135 = CC_DESIGN_APPROVAL ( #67, ( #242 ) ) ;
#136 = ADVANCED_FACE ( 'NONE', ( #1 ), #163, .T. ) ;
#137 = CARTESIAN_POINT ( 'NONE',  ( 0.0000000000000000000, 1.269999999999998241, 0.01738054094702662367 ) ) ;
#138 = AXIS2_PLACEMENT_3D ( 'NONE', #238, #8, #75 ) ;
#139 = ORIENTED_EDGE ( 'NONE', *, *, #146, .F. ) ;
#140 = LINE ( 'NONE', #171, #22 ) ;
#141 = DIRECTION ( 'NONE',  ( 0.0000000000000000000, -0.7071067811865570096, 0.7071067811865380248 ) ) ;
#142 = CC_DESIGN_PERSON_AND_ORGANIZATION_ASSIGNMENT ( #69, #226, ( #159 ) ) ;
#143 = DIRECTION ( 'NONE',  ( -0.0000000000000000000, 3.061515884555961881E-16, -1.000000000000000000 ) ) ;
#144 = ORIENTED_EDGE ( 'NONE', *, *, #29, .F. ) ;
#145 = PERSON_AND_ORGANIZATION ( #23, #210 ) ;
#146 = EDGE_CURVE ( 'NONE', #255, #16, #275, .T. ) ;
#147 = APPLICATION_PROTOCOL_DEFINITION ( 'international standard', 'config_control_design', 1994, #246 ) ;
#148 =( NAMED_UNIT ( * ) PLANE_ANGLE_UNIT ( ) SI_UNIT ( $, .RADIAN. ) );
#149 = VECTOR ( 'NONE', #285, 100.0000000000000000 ) ;
#150 = CIRCLE ( 'NONE', #102, 1.250000000000000444 ) ;
#151 = DIRECTION ( 'NONE',  ( 0.0000000000000000000, 1.000000000000000000, 3.051986430421798178E-16 ) ) ;
#152 = VERTEX_POINT ( 'NONE', #34 ) ;
#153 = CALENDAR_DATE ( 2019, 16, 7 ) ;
#154 = DATE_TIME_ROLE ( 'classification_date' ) ;
#155 = CC_DESIGN_PERSON_AND_ORGANIZATION_ASSIGNMENT ( #25, #64, ( #242 ) ) ;
#156 = PRODUCT ( '20135-E0W', '20135-E0W', '', ( #19 ) ) ;
#157 = COORDINATED_UNIVERSAL_TIME_OFFSET ( 5, 0, .BEHIND. ) ;
#158 = FACE_OUTER_BOUND ( 'NONE', #248, .T. ) ;
#159 = PRODUCT_DEFINITION_FORMATION_WITH_SPECIFIED_SOURCE ( 'ANY', '', #156, .NOT_KNOWN. ) ;
#160 = SECURITY_CLASSIFICATION ( '', '', #43 ) ;
#161 = EDGE_LOOP ( 'NONE', ( #68, #100 ) ) ;
#162 = CALENDAR_DATE ( 2019, 16, 7 ) ;
#163 = CYLINDRICAL_SURFACE ( 'NONE', #258, 1.269999999999998241 ) ;
#164 = CARTESIAN_POINT ( 'NONE',  ( 0.0000000000000000000, -1.250000000000000444, -0.1625000000000005884 ) ) ;
#165 = CARTESIAN_POINT ( 'NONE',  ( 0.0000000000000000000, -1.190729492924989954E-15, 0.04124612076231298774 ) ) ;
#166 = CARTESIAN_POINT ( 'NONE',  ( 0.0000000000000000000, 1.203771484628260011E-17, 0.01738054094702623509 ) ) ;
#167 = LOCAL_TIME ( 7, 12, 14.00000000000000000, #63 ) ;
#168 = DIRECTION ( 'NONE',  ( 0.0000000000000000000, 0.0000000000000000000, 1.000000000000000000 ) ) ;
#169 = DIRECTION ( 'NONE',  ( -0.0000000000000000000, 3.061515884555961881E-16, -1.000000000000000000 ) ) ;
#170 = AXIS2_PLACEMENT_3D ( 'NONE', #288, #198, #21 ) ;
#171 = CARTESIAN_POINT ( 'NONE',  ( 0.0000000000000000000, 1.269999999999998241, -0.1624999999999995892 ) ) ;
#172 = EDGE_LOOP ( 'NONE', ( #274, #65, #96, #134 ) ) ;
#173 = CIRCLE ( 'NONE', #49, 1.269999999999998241 ) ;
#174 = CARTESIAN_POINT ( 'NONE',  ( 0.0000000000000000000, -1.190729492924989954E-15, 0.04124612076231298774 ) ) ;
#175 = EDGE_CURVE ( 'NONE', #16, #36, #271, .T. ) ;
#176 = CARTESIAN_POINT ( 'NONE',  ( 1.555301434917136362E-16, -1.269999999999998241, -0.1625000000000003941 ) ) ;
#177 = APPROVAL_DATE_TIME ( #108, #184 ) ;
#178 = ORIENTED_EDGE ( 'NONE', *, *, #42, .F. ) ;
#179 = VECTOR ( 'NONE', #188, 100.0000000000000000 ) ;
#180 = ADVANCED_FACE ( 'NONE', ( #200 ), #231, .T. ) ;
#181 = EDGE_CURVE ( 'NONE', #36, #152, #237, .T. ) ;
#182 = ORIENTED_EDGE ( 'NONE', *, *, #46, .F. ) ;
#183 = ADVANCED_FACE ( 'NONE', ( #283 ), #260, .T. ) ;
#184 = APPROVAL ( #85, 'UNSPECIFIED' ) ;
#185 = ORIENTED_EDGE ( 'NONE', *, *, #11, .F. ) ;
#186 = FACE_OUTER_BOUND ( 'NONE', #39, .T. ) ;
#187 = DIRECTION ( 'NONE',  ( -0.0000000000000000000, 3.061515884555943146E-16, -1.000000000000000000 ) ) ;
#188 = DIRECTION ( 'NONE',  ( 7.768815879258278308E-17, -0.6343719580753591769, -0.7730279547387887140 ) ) ;
#189 = CARTESIAN_POINT ( 'NONE',  ( 0.0000000000000000000, 1.269999999999998241, 0.01738054094702662367 ) ) ;
#190 = DIRECTION ( 'NONE',  ( 0.0000000000000000000, 1.000000000000000000, 3.073328992872300312E-16 ) ) ;
#191 = AXIS2_PLACEMENT_3D ( 'NONE', #112, #240, #90 ) ;
#192 = ORIENTED_EDGE ( 'NONE', *, *, #86, .F. ) ;
#193 = COORDINATED_UNIVERSAL_TIME_OFFSET ( 5, 0, .BEHIND. ) ;
#194 = CIRCLE ( 'NONE', #170, 6.508000000000000007 ) ;
#195 = CARTESIAN_POINT ( 'NONE',  ( 0.0000000000000000000, 7.645829770090036519E-16, -6.345499999999981711 ) ) ;
#196 = DIRECTION ( 'NONE',  ( 8.659560562355046257E-17, 0.7071067811865564545, 0.7071067811865385799 ) ) ;
#197 = CC_DESIGN_DATE_AND_TIME_ASSIGNMENT ( #282, #154, ( #160 ) ) ;
#198 = DIRECTION ( 'NONE',  ( 1.000000000000000000, 1.224646799147353207E-16, 3.749275628560213616E-32 ) ) ;
#199 = LINE ( 'NONE', #272, #224 ) ;
#200 = FACE_OUTER_BOUND ( 'NONE', #27, .T. ) ;
#201 = APPROVAL_ROLE ( '' ) ;
#202 = PERSON_AND_ORGANIZATION_ROLE ( 'creator' ) ;
#203 = APPROVAL_STATUS ( 'not_yet_approved' ) ;
#204 = EDGE_LOOP ( 'NONE', ( #185, #5, #126, #182 ) ) ;
#205 = DATE_AND_TIME ( #266, #167 ) ;
#206 = AXIS2_PLACEMENT_3D ( 'NONE', #247, #101, #267 ) ;
#207 = EDGE_CURVE ( 'NONE', #255, #77, #45, .T. ) ;
#208 = LINE ( 'NONE', #164, #82 ) ;
#209 =( GEOMETRIC_REPRESENTATION_CONTEXT ( 3 ) GLOBAL_UNCERTAINTY_ASSIGNED_CONTEXT ( ( #114 ) ) GLOBAL_UNIT_ASSIGNED_CONTEXT ( ( #122, #148, #37 ) ) REPRESENTATION_CONTEXT ( 'NONE', 'WORKASPACE' ) );
#210 = ORGANIZATION ( 'UNSPECIFIED', 'UNSPECIFIED', '' ) ;
#211 = FACE_OUTER_BOUND ( 'NONE', #161, .T. ) ;
#212 = DESIGN_CONTEXT ( 'detailed design', #221, 'design' ) ;
#213 = DIRECTION ( 'NONE',  ( -1.000000000000000000, 0.0000000000000000000, 0.0000000000000000000 ) ) ;
#214 = CARTESIAN_POINT ( 'NONE',  ( 0.0000000000000000000, 7.645829770090036519E-16, -6.345499999999981711 ) ) ;
#215 = DIRECTION ( 'NONE',  ( 0.0000000000000000000, 1.000000000000000000, 3.073328992872300312E-16 ) ) ;
#216 = ORIENTED_EDGE ( 'NONE', *, *, #207, .T. ) ;
#217 = DIRECTION ( 'NONE',  ( 0.0000000000000000000, 1.000000000000000000, 3.122502256758251784E-16 ) ) ;
#218 = DIRECTION ( 'NONE',  ( 0.0000000000000000000, 1.000000000000000000, 3.078111924852433693E-16 ) ) ;
#219 = CC_DESIGN_DATE_AND_TIME_ASSIGNMENT ( #78, #103, ( #242 ) ) ;
#220 = DIRECTION ( 'NONE',  ( 0.0000000000000000000, 0.0000000000000000000, 1.000000000000000000 ) ) ;
#221 = APPLICATION_CONTEXT ( 'configuration controlled 3d designs of mechanical parts and assemblies' ) ;
#222 = AXIS2_PLACEMENT_3D ( 'NONE', #3, #52, #133 ) ;
#223 = VERTEX_POINT ( 'NONE', #295 ) ;
#224 = VECTOR ( 'NONE', #196, 100.0000000000000000 ) ;
#225 = DIRECTION ( 'NONE',  ( 1.000000000000000000, 0.0000000000000000000, -0.0000000000000000000 ) ) ;
#226 = PERSON_AND_ORGANIZATION_ROLE ( 'design_supplier' ) ;
#227 = LOCAL_TIME ( 7, 12, 14.00000000000000000, #280 ) ;
#228 = AXIS2_PLACEMENT_3D ( 'NONE', #54, #187, #257 ) ;
#229 = ORIENTED_EDGE ( 'NONE', *, *, #11, .T. ) ;
#230 = LOCAL_TIME ( 7, 12, 14.00000000000000000, #193 ) ;
#231 = CYLINDRICAL_SURFACE ( 'NONE', #206, 1.269999999999998241 ) ;
#232 = ORIENTED_EDGE ( 'NONE', *, *, #86, .T. ) ;
#233 = APPROVAL_PERSON_ORGANIZATION ( #30, #184, #249 ) ;
#234 = CARTESIAN_POINT ( 'NONE',  ( 1.555301434917136362E-16, -1.269999999999998241, 0.01738054094702584651 ) ) ;
#235 = ADVANCED_FACE ( 'NONE', ( #211 ), #98, .T. ) ;
#236 = AXIS2_PLACEMENT_3D ( 'NONE', #195, #225, #268 ) ;
#237 = LINE ( 'NONE', #176, #127 ) ;
#238 = CARTESIAN_POINT ( 'NONE',  ( 0.0000000000000000000, 6.710842818946632394E-17, -0.1625000000000001998 ) ) ;
#239 = AXIS2_PLACEMENT_3D ( 'NONE', #165, #35, #74 ) ;
#240 = DIRECTION ( 'NONE',  ( 0.0000000000000000000, -3.061515884555941666E-16, 1.000000000000000000 ) ) ;
#241 = APPROVAL_PERSON_ORGANIZATION ( #6, #18, #104 ) ;
#242 = PRODUCT_DEFINITION ( 'UNKNOWN', '', #159, #212 ) ;
#243 = ORIENTED_EDGE ( 'NONE', *, *, #106, .T. ) ;
#244 = APPROVAL_DATE_TIME ( #205, #18 ) ;
#245 = CIRCLE ( 'NONE', #191, 1.269999999999998241 ) ;
#246 = APPLICATION_CONTEXT ( 'configuration controlled 3d designs of mechanical parts and assemblies' ) ;
#247 = CARTESIAN_POINT ( 'NONE',  ( 0.0000000000000000000, 6.710842818946626231E-17, -0.1625000000000000056 ) ) ;
#248 = EDGE_LOOP ( 'NONE', ( #10, #62, #216 ) ) ;
#249 = APPROVAL_ROLE ( '' ) ;
#250 = CC_DESIGN_SECURITY_CLASSIFICATION ( #160, ( #159 ) ) ;
#251 = ADVANCED_FACE ( 'NONE', ( #254 ), #91, .T. ) ;
#252 = AXIS2_PLACEMENT_3D ( 'NONE', #166, #259, #72 ) ;
#253 = MANIFOLD_SOLID_BREP ( '20135-001-1-solid1', #24 ) ;
#254 = FACE_OUTER_BOUND ( 'NONE', #204, .T. ) ;
#255 = VERTEX_POINT ( 'NONE', #118 ) ;
#256 = CIRCLE ( 'NONE', #239, 1.250415126639054852 ) ;
#257 = DIRECTION ( 'NONE',  ( 0.0000000000000000000, 1.000000000000000000, 3.122502256758251784E-16 ) ) ;
#258 = AXIS2_PLACEMENT_3D ( 'NONE', #284, #71, #215 ) ;
#259 = DIRECTION ( 'NONE',  ( -0.0000000000000000000, 3.061515884555961881E-16, -1.000000000000000000 ) ) ;
#260 = SPHERICAL_SURFACE ( 'NONE', #294, 6.508000000000000007 ) ;
#261 = CONICAL_SURFACE ( 'NONE', #252, 1.269999999999998241, 0.6871958049281585712 ) ;
#262 = CARTESIAN_POINT ( 'NONE',  ( 0.0000000000000000000, 1.203771484628260935E-17, 0.01738054094702623509 ) ) ;
#263 = EDGE_CURVE ( 'NONE', #33, #77, #194, .T. ) ;
#264 = CARTESIAN_POINT ( 'NONE',  ( 0.0000000000000000000, -1.250000000000000444, -0.1625000000000005884 ) ) ;
#265 = DIRECTION ( 'NONE',  ( -0.0000000000000000000, 3.061515884555943146E-16, -1.000000000000000000 ) ) ;
#266 = CALENDAR_DATE ( 2019, 16, 7 ) ;
#267 = DIRECTION ( 'NONE',  ( 0.0000000000000000000, 1.000000000000000000, 3.073328992872300312E-16 ) ) ;
#268 = DIRECTION ( 'NONE',  ( 0.0000000000000000000, 1.000000000000000000, 2.132419761495767782E-16 ) ) ;
#269 = DIRECTION ( 'NONE',  ( 0.0000000000000000000, -3.061515884555961881E-16, 1.000000000000000000 ) ) ;
#270 = AXIS2_PLACEMENT_3D ( 'NONE', #94, #93, #190 ) ;
#271 = CIRCLE ( 'NONE', #131, 1.269999999999998241 ) ;
#272 = CARTESIAN_POINT ( 'NONE',  ( 1.530808498934192064E-16, 1.250000000000000444, -0.1624999999999998113 ) ) ;
#273 = CC_DESIGN_PERSON_AND_ORGANIZATION_ASSIGNMENT ( #47, #300, ( #160 ) ) ;
#274 = ORIENTED_EDGE ( 'NONE', *, *, #175, .T. ) ;
#275 = LINE ( 'NONE', #189, #149 ) ;
#276 = CC_DESIGN_PERSON_AND_ORGANIZATION_ASSIGNMENT ( #145, #202, ( #159 ) ) ;
#277 = ADVANCED_FACE ( 'NONE', ( #158 ), #121, .T. ) ;
#278 = EDGE_CURVE ( 'NONE', #53, #223, #199, .T. ) ;
#279 = EDGE_LOOP ( 'NONE', ( #119, #144, #232, #44 ) ) ;
#280 = COORDINATED_UNIVERSAL_TIME_OFFSET ( 5, 0, .BEHIND. ) ;
#281 = ORIENTED_EDGE ( 'NONE', *, *, #278, .T. ) ;
#282 = DATE_AND_TIME ( #162, #66 ) ;
#283 = FACE_OUTER_BOUND ( 'NONE', #113, .T. ) ;
#284 = CARTESIAN_POINT ( 'NONE',  ( 0.0000000000000000000, 6.710842818946626231E-17, -0.1625000000000000056 ) ) ;
#285 = DIRECTION ( 'NONE',  ( 0.0000000000000000000, 0.6343719580753596210, -0.7730279547387882699 ) ) ;
#286 = APPROVAL_PERSON_ORGANIZATION ( #120, #67, #201 ) ;
#287 = CARTESIAN_POINT ( 'NONE',  ( 0.0000000000000000000, 6.710842818946632394E-17, -0.1625000000000001998 ) ) ;
#288 = CARTESIAN_POINT ( 'NONE',  ( 0.0000000000000000000, 7.645829770090036519E-16, -6.345499999999981711 ) ) ;
#289 = DIRECTION ( 'NONE',  ( 1.000000000000000000, 0.0000000000000000000, 0.0000000000000000000 ) ) ;
#290 = ORIENTED_EDGE ( 'NONE', *, *, #263, .T. ) ;
#291 = SHAPE_DEFINITION_REPRESENTATION ( #15, #57 ) ;
#292 = FACE_OUTER_BOUND ( 'NONE', #105, .T. ) ;
#293 = CARTESIAN_POINT ( 'NONE',  ( 0.0000000000000000000, 1.203771484628260011E-17, 0.01738054094702623509 ) ) ;
#294 = AXIS2_PLACEMENT_3D ( 'NONE', #76, #124, #20 ) ;
#295 = CARTESIAN_POINT ( 'NONE',  ( 0.0000000000000000000, 1.269999999999998241, -0.1425000000000025135 ) ) ;
#296 = APPROVAL_STATUS ( 'not_yet_approved' ) ;
#297 = EDGE_CURVE ( 'NONE', #16, #223, #140, .T. ) ;
#298 = ORIENTED_EDGE ( 'NONE', *, *, #181, .F. ) ;
#299 = APPROVAL_DATE_TIME ( #109, #67 ) ;
#300 = PERSON_AND_ORGANIZATION_ROLE ( 'classification_officer' ) ;
#301 = CC_DESIGN_APPROVAL ( #184, ( #159 ) ) ;
ENDSEC;
END-ISO-10303-21;
