ISO-10303-21;
HEADER;
FILE_DESCRIPTION (( 'STEP AP203' ),
    '1' );
FILE_NAME ('TTN031789-E0W.STEP',
    '2014-09-16T17:32:20',
    ( 'admin' ),
    ( '' ),
    'SwSTEP 2.0',
    'SolidWorks 2014',
    '' );
FILE_SCHEMA (( 'CONFIG_CONTROL_DESIGN' ));
ENDSEC;

DATA;
#1 = CIRCLE ( 'NONE', #316, 0.4922431375633679600 ) ;
#2 = DIRECTION ( 'NONE',  ( -1.000000000000000000, 0.0000000000000000000, 0.0000000000000000000 ) ) ;
#3 = VERTEX_POINT ( 'NONE', #239 ) ;
#4 = APPROVAL_ROLE ( '' ) ;
#5 = CARTESIAN_POINT ( 'NONE',  ( 0.02095057842036628800, -3.726976282444503600E-016, 0.0000000000000000000 ) ) ;
#6 = PRODUCT_RELATED_PRODUCT_CATEGORY ( 'detail', '', ( #42 ) ) ;
#7 = CALENDAR_DATE ( 2014, 16, 9 ) ;
#8 = EDGE_CURVE ( 'NONE', #238, #22, #125, .T. ) ;
#9 = DIRECTION ( 'NONE',  ( 0.0000000000000000000, 0.0000000000000000000, 1.000000000000000000 ) ) ;
#10 = PRODUCT_DEFINITION_FORMATION_WITH_SPECIFIED_SOURCE ( 'ANY', '', #42, .NOT_KNOWN. ) ;
#11 = DIRECTION ( 'NONE',  ( -3.804167648025594800E-048, 1.224646799147353200E-016, 1.000000000000000000 ) ) ;
#12 = LINE ( 'NONE', #165, #345 ) ;
#13 = EDGE_LOOP ( 'NONE', ( #274, #14, #223, #99, #328 ) ) ;
#14 = ORIENTED_EDGE ( 'NONE', *, *, #275, .T. ) ;
#15 = CARTESIAN_POINT ( 'NONE',  ( -0.05314960629921258000, -2.303884251733205900E-017, -0.5000000000000000000 ) ) ;
#16 = DIRECTION ( 'NONE',  ( 0.0000000000000000000, 0.0000000000000000000, 1.000000000000000000 ) ) ;
#17 = EDGE_CURVE ( 'NONE', #133, #188, #161, .T. ) ;
#18 = DATE_AND_TIME ( #298, #56 ) ;
#19 = AXIS2_PLACEMENT_3D ( 'NONE', #38, #309, #143 ) ;
#20 = CIRCLE ( 'NONE', #191, 0.4921259842519684100 ) ;
#21 = VERTEX_POINT ( 'NONE', #268 ) ;
#22 = VERTEX_POINT ( 'NONE', #141 ) ;
#23 = COORDINATED_UNIVERSAL_TIME_OFFSET ( 5, 0, .BEHIND. ) ;
#24 = DIRECTION ( 'NONE',  ( 0.0000000000000000000, 1.000000000000000000, 0.0000000000000000000 ) ) ;
#25 = CARTESIAN_POINT ( 'NONE',  ( 0.02095057842036628800, -3.726976282444503600E-016, 0.0000000000000000000 ) ) ;
#26 = CONICAL_SURFACE ( 'NONE', #27, 0.5000000000000000000, 0.7853981633974526100 ) ;
#27 = AXIS2_PLACEMENT_3D ( 'NONE', #336, #175, #305 ) ;
#28 = EDGE_CURVE ( 'NONE', #170, #3, #1, .T. ) ;
#29 = ORIENTED_EDGE ( 'NONE', *, *, #174, .T. ) ;
#30 = CC_DESIGN_APPROVAL ( #70, ( #10 ) ) ;
#31 = APPLICATION_PROTOCOL_DEFINITION ( 'international standard', 'config_control_design', 1994, #197 ) ;
#32 = DATE_TIME_ROLE ( 'creation_date' ) ;
#33 = DATE_TIME_ROLE ( 'classification_date' ) ;
#34 = EDGE_CURVE ( 'NONE', #276, #21, #293, .T. ) ;
#35 = CARTESIAN_POINT ( 'NONE',  ( -0.05314960629921258000, 0.5000000000000000000, 0.0000000000000000000 ) ) ;
#36 = DIRECTION ( 'NONE',  ( 0.0000000000000000000, 0.0000000000000000000, 1.000000000000000000 ) ) ;
#37 = ORIENTED_EDGE ( 'NONE', *, *, #48, .T. ) ;
#38 = CARTESIAN_POINT ( 'NONE',  ( 0.06102362204724409700, -2.303884251733205600E-017, 0.0000000000000000000 ) ) ;
#39 = CARTESIAN_POINT ( 'NONE',  ( -0.05314960629921258000, -2.303884251733205900E-017, -0.5000000000000000000 ) ) ;
#40 = ORIENTED_EDGE ( 'NONE', *, *, #132, .F. ) ;
#41 = ORIENTED_EDGE ( 'NONE', *, *, #17, .F. ) ;
#42 = PRODUCT ( 'TTN031789-E0W', 'TTN031789-E0W', '', ( #171 ) ) ;
#43 = DIRECTION ( 'NONE',  ( 0.0000000000000000000, -1.000000000000000000, 1.224646799147353000E-016 ) ) ;
#44 = EDGE_CURVE ( 'NONE', #170, #347, #12, .T. ) ;
#45 = CARTESIAN_POINT ( 'NONE',  ( -0.06102362204724409700, -2.303884251733205900E-017, 0.0000000000000000000 ) ) ;
#46 = CC_DESIGN_DATE_AND_TIME_ASSIGNMENT ( #212, #32, ( #201 ) ) ;
#47 = COORDINATED_UNIVERSAL_TIME_OFFSET ( 5, 0, .BEHIND. ) ;
#48 = EDGE_CURVE ( 'NONE', #3, #238, #357, .T. ) ;
#49 = EDGE_CURVE ( 'NONE', #321, #90, #319, .T. ) ;
#50 = CIRCLE ( 'NONE', #83, 0.5000000000000000000 ) ;
#51 = ORIENTED_EDGE ( 'NONE', *, *, #233, .T. ) ;
#52 = EDGE_LOOP ( 'NONE', ( #288, #98, #82, #115 ) ) ;
#53 = AXIS2_PLACEMENT_3D ( 'NONE', #279, #58, #300 ) ;
#54 = CARTESIAN_POINT ( 'NONE',  ( 0.01179488830051178900, 0.5000000000000000000, 0.0000000000000000000 ) ) ;
#55 = LINE ( 'NONE', #39, #85 ) ;
#56 = LOCAL_TIME ( 13, 32, 20.00000000000000000, #23 ) ;
#57 = EDGE_CURVE ( 'NONE', #238, #21, #311, .T. ) ;
#58 = DIRECTION ( 'NONE',  ( 1.000000000000000000, -0.0000000000000000000, -0.0000000000000000000 ) ) ;
#59 = ORIENTED_EDGE ( 'NONE', *, *, #174, .F. ) ;
#60 = CONICAL_SURFACE ( 'NONE', #72, 0.4922431375633682400, 0.7028765580185089000 ) ;
#61 = APPROVAL_PERSON_ORGANIZATION ( #330, #166, #4 ) ;
#62 = ORIENTED_EDGE ( 'NONE', *, *, #49, .F. ) ;
#63 = FACE_OUTER_BOUND ( 'NONE', #91, .T. ) ;
#64 = CARTESIAN_POINT ( 'NONE',  ( -0.06102362204724409700, -2.303884251733205900E-017, 0.0000000000000000000 ) ) ;
#65 =( NAMED_UNIT ( * ) PLANE_ANGLE_UNIT ( ) SI_UNIT ( $, .RADIAN. ) );
#66 = CALENDAR_DATE ( 2014, 16, 9 ) ;
#67 = DIRECTION ( 'NONE',  ( -1.000000000000000000, 0.0000000000000000000, 0.0000000000000000000 ) ) ;
#68 = CLOSED_SHELL ( 'NONE', ( #354, #211, #350, #80, #130, #160, #186, #235, #158 ) ) ;
#69 = CARTESIAN_POINT ( 'NONE',  ( 0.01179488830051178900, 3.819349744003560400E-017, -0.5000000000000000000 ) ) ;
#70 = APPROVAL ( #176, 'UNSPECIFIED' ) ;
#71 = VECTOR ( 'NONE', #100, 39.37007874015748100 ) ;
#72 = AXIS2_PLACEMENT_3D ( 'NONE', #250, #67, #9 ) ;
#73 = DIRECTION ( 'NONE',  ( 0.0000000000000000000, 0.0000000000000000000, 1.000000000000000000 ) ) ;
#74 = APPROVAL_ROLE ( '' ) ;
#75 = CARTESIAN_POINT ( 'NONE',  ( 0.06102362204724409700, -2.303884251733205600E-017, 0.0000000000000000000 ) ) ;
#76 = ORIENTED_EDGE ( 'NONE', *, *, #57, .F. ) ;
#77 = DIRECTION ( 'NONE',  ( 1.000000000000000000, -0.0000000000000000000, -0.0000000000000000000 ) ) ;
#78 = CC_DESIGN_PERSON_AND_ORGANIZATION_ASSIGNMENT ( #173, #284, ( #10 ) ) ;
#79 = DATE_AND_TIME ( #7, #88 ) ;
#80 = ADVANCED_FACE ( 'NONE', ( #237 ), #180, .T. ) ;
#81 = VECTOR ( 'NONE', #356, 39.37007874015748100 ) ;
#82 = ORIENTED_EDGE ( 'NONE', *, *, #28, .T. ) ;
#83 = AXIS2_PLACEMENT_3D ( 'NONE', #146, #150, #340 ) ;
#84 = CARTESIAN_POINT ( 'NONE',  ( -0.06102362204724409700, -2.303884251733205900E-017, -0.4921259842519684100 ) ) ;
#85 = VECTOR ( 'NONE', #148, 39.37007874015748100 ) ;
#86 =( GEOMETRIC_REPRESENTATION_CONTEXT ( 3 ) GLOBAL_UNCERTAINTY_ASSIGNED_CONTEXT ( ( #353 ) ) GLOBAL_UNIT_ASSIGNED_CONTEXT ( ( #226, #65, #95 ) ) REPRESENTATION_CONTEXT ( 'NONE', 'WORKASPACE' ) );
#87 = DIRECTION ( 'NONE',  ( -1.000000000000000000, 0.0000000000000000000, 0.0000000000000000000 ) ) ;
#88 = LOCAL_TIME ( 13, 32, 20.00000000000000000, #124 ) ;
#89 = SPHERICAL_SURFACE ( 'NONE', #142, 3.043307086614173600 ) ;
#90 = VERTEX_POINT ( 'NONE', #54 ) ;
#91 = EDGE_LOOP ( 'NONE', ( #303, #327, #162, #182, #76, #131 ) ) ;
#92 = APPROVAL_STATUS ( 'not_yet_approved' ) ;
#93 = PERSON_AND_ORGANIZATION ( #253, #217 ) ;
#94 = CARTESIAN_POINT ( 'NONE',  ( 0.06102362204724409700, 0.5000000000000000000, 0.0000000000000000000 ) ) ;
#95 =( NAMED_UNIT ( * ) SI_UNIT ( $, .STERADIAN. ) SOLID_ANGLE_UNIT ( ) );
#96 = CARTESIAN_POINT ( 'NONE',  ( -0.05314960629921258000, 3.819349744003559800E-017, 0.5000000000000000000 ) ) ;
#97 = EDGE_LOOP ( 'NONE', ( #203, #135, #29, #214, #337, #62 ) ) ;
#98 = ORIENTED_EDGE ( 'NONE', *, *, #248, .T. ) ;
#99 = ORIENTED_EDGE ( 'NONE', *, *, #140, .F. ) ;
#100 = DIRECTION ( 'NONE',  ( 1.000000000000000000, 3.106338619979413100E-032, -0.0000000000000000000 ) ) ;
#101 = CARTESIAN_POINT ( 'NONE',  ( -0.05314960629921258000, -0.5000000000000000000, 6.123233995736766000E-017 ) ) ;
#102 = DIRECTION ( 'NONE',  ( 1.000000000000000000, -0.0000000000000000000, -0.0000000000000000000 ) ) ;
#103 = AXIS2_PLACEMENT_3D ( 'NONE', #45, #232, #317 ) ;
#104 = CARTESIAN_POINT ( 'NONE',  ( -0.05314960629921258000, -2.303884251733205900E-017, 0.0000000000000000000 ) ) ;
#105 = CC_DESIGN_PERSON_AND_ORGANIZATION_ASSIGNMENT ( #196, #121, ( #42 ) ) ;
#106 = LOCAL_TIME ( 13, 32, 20.00000000000000000, #47 ) ;
#107 = DIMENSIONAL_EXPONENTS ( 1.000000000000000000, 0.0000000000000000000, 0.0000000000000000000, 0.0000000000000000000, 0.0000000000000000000, 0.0000000000000000000, 0.0000000000000000000 ) ;
#108 = ORIENTED_EDGE ( 'NONE', *, *, #8, .F. ) ;
#109 = AXIS2_PLACEMENT_3D ( 'NONE', #306, #281, #285 ) ;
#110 = EDGE_CURVE ( 'NONE', #3, #122, #215, .T. ) ;
#111 = CARTESIAN_POINT ( 'NONE',  ( 0.02095057842036683600, -2.303884251733205600E-017, 0.4922431375633682400 ) ) ;
#112 = DIRECTION ( 'NONE',  ( 0.0000000000000000000, -0.0000000000000000000, 1.000000000000000000 ) ) ;
#113 = CARTESIAN_POINT ( 'NONE',  ( 0.06102362204724447900, -1.863488141222250300E-016, 0.0000000000000000000 ) ) ;
#114 = ORIENTED_EDGE ( 'NONE', *, *, #260, .T. ) ;
#115 = ORIENTED_EDGE ( 'NONE', *, *, #110, .T. ) ;
#116 = CIRCLE ( 'NONE', #154, 0.5000000000000000000 ) ;
#117 = AXIS2_PLACEMENT_3D ( 'NONE', #218, #77, #209 ) ;
#118 = COORDINATED_UNIVERSAL_TIME_OFFSET ( 5, 0, .BEHIND. ) ;
#119 = PERSON_AND_ORGANIZATION_ROLE ( 'classification_officer' ) ;
#120 = FACE_OUTER_BOUND ( 'NONE', #97, .T. ) ;
#121 = PERSON_AND_ORGANIZATION_ROLE ( 'design_owner' ) ;
#122 = VERTEX_POINT ( 'NONE', #113 ) ;
#123 = DIRECTION ( 'NONE',  ( 0.7071067811865444600, 8.659560562354969800E-017, 0.7071067811865505700 ) ) ;
#124 = COORDINATED_UNIVERSAL_TIME_OFFSET ( 5, 0, .BEHIND. ) ;
#125 = CIRCLE ( 'NONE', #53, 0.4922431375633679600 ) ;
#126 = DIRECTION ( 'NONE',  ( 1.000000000000000000, 3.106338619979413100E-032, -0.0000000000000000000 ) ) ;
#127 = SECURITY_CLASSIFICATION ( '', '', #255 ) ;
#128 = CIRCLE ( 'NONE', #318, 3.043307086614173600 ) ;
#129 = APPROVAL_DATE_TIME ( #271, #166 ) ;
#130 = ADVANCED_FACE ( 'NONE', ( #287 ), #89, .T. ) ;
#131 = ORIENTED_EDGE ( 'NONE', *, *, #48, .F. ) ;
#132 = EDGE_CURVE ( 'NONE', #347, #276, #227, .T. ) ;
#133 = VERTEX_POINT ( 'NONE', #84 ) ;
#134 = AXIS2_PLACEMENT_3D ( 'NONE', #178, #145, #36 ) ;
#135 = ORIENTED_EDGE ( 'NONE', *, *, #167, .T. ) ;
#136 = PERSON_AND_ORGANIZATION ( #253, #217 ) ;
#137 = DIRECTION ( 'NONE',  ( 1.000000000000000000, -0.0000000000000000000, -0.0000000000000000000 ) ) ;
#138 = APPROVAL_STATUS ( 'not_yet_approved' ) ;
#139 = ORIENTED_EDGE ( 'NONE', *, *, #110, .F. ) ;
#140 = EDGE_CURVE ( 'NONE', #169, #321, #168, .T. ) ;
#141 = CARTESIAN_POINT ( 'NONE',  ( 0.02095057842036628800, -0.4922431375633707400, 6.028239828192318400E-017 ) ) ;
#142 = AXIS2_PLACEMENT_3D ( 'NONE', #164, #194, #192 ) ;
#143 = DIRECTION ( 'NONE',  ( 0.0000000000000000000, 1.000000000000000000, 0.0000000000000000000 ) ) ;
#144 = APPROVAL_PERSON_ORGANIZATION ( #292, #262, #199 ) ;
#145 = DIRECTION ( 'NONE',  ( 1.000000000000000000, -0.0000000000000000000, -0.0000000000000000000 ) ) ;
#146 = CARTESIAN_POINT ( 'NONE',  ( -0.05314960629921258000, -2.303884251733205900E-017, 0.0000000000000000000 ) ) ;
#147 = DIRECTION ( 'NONE',  ( 1.000000000000000000, 0.0000000000000000000, 0.0000000000000000000 ) ) ;
#148 = DIRECTION ( 'NONE',  ( 0.7071067811865444600, 0.0000000000000000000, -0.7071067811865505700 ) ) ;
#149 = DIRECTION ( 'NONE',  ( -1.000000000000000000, -3.106338619979413100E-032, 0.0000000000000000000 ) ) ;
#150 = DIRECTION ( 'NONE',  ( 1.000000000000000000, -0.0000000000000000000, -0.0000000000000000000 ) ) ;
#151 = PERSON_AND_ORGANIZATION_ROLE ( 'creator' ) ;
#152 = ORIENTED_EDGE ( 'NONE', *, *, #275, .F. ) ;
#153 = ORIENTED_EDGE ( 'NONE', *, *, #17, .T. ) ;
#154 = AXIS2_PLACEMENT_3D ( 'NONE', #282, #308, #179 ) ;
#155 = SHAPE_DEFINITION_REPRESENTATION ( #242, #213 ) ;
#156 = CARTESIAN_POINT ( 'NONE',  ( -0.05314960629921258000, 3.819349744003559800E-017, 0.5000000000000000000 ) ) ;
#157 = APPROVAL_DATE_TIME ( #245, #262 ) ;
#158 = ADVANCED_FACE ( 'NONE', ( #221 ), #314, .T. ) ;
#159 = FACE_OUTER_BOUND ( 'NONE', #13, .T. ) ;
#160 = ADVANCED_FACE ( 'NONE', ( #207 ), #296, .T. ) ;
#161 = CIRCLE ( 'NONE', #331, 0.4921259842519684100 ) ;
#162 = ORIENTED_EDGE ( 'NONE', *, *, #260, .F. ) ;
#163 = EDGE_CURVE ( 'NONE', #22, #122, #128, .T. ) ;
#164 = CARTESIAN_POINT ( 'NONE',  ( -2.982283464566929200, -3.726976282444503600E-016, 0.0000000000000000000 ) ) ;
#165 = CARTESIAN_POINT ( 'NONE',  ( 0.02095057842036683600, 3.724355576459085700E-017, -0.4922431375633682400 ) ) ;
#166 = APPROVAL ( #138, 'UNSPECIFIED' ) ;
#167 = EDGE_CURVE ( 'NONE', #187, #320, #341, .T. ) ;
#168 = CIRCLE ( 'NONE', #117, 0.5000000000000000000 ) ;
#169 = VERTEX_POINT ( 'NONE', #15 ) ;
#170 = VERTEX_POINT ( 'NONE', #228 ) ;
#171 = MECHANICAL_CONTEXT ( 'NONE', #197, 'mechanical' ) ;
#172 = CARTESIAN_POINT ( 'NONE',  ( 0.01179488830051178900, -2.303884251733205600E-017, 0.0000000000000000000 ) ) ;
#173 = PERSON_AND_ORGANIZATION ( #253, #217 ) ;
#174 = EDGE_CURVE ( 'NONE', #320, #276, #349, .T. ) ;
#175 = DIRECTION ( 'NONE',  ( 1.000000000000000000, -0.0000000000000000000, -0.0000000000000000000 ) ) ;
#176 = APPROVAL_STATUS ( 'not_yet_approved' ) ;
#177 = CALENDAR_DATE ( 2014, 16, 9 ) ;
#178 = CARTESIAN_POINT ( 'NONE',  ( 0.02095057842036628800, -3.726976282444503600E-016, 0.0000000000000000000 ) ) ;
#179 = DIRECTION ( 'NONE',  ( 0.0000000000000000000, 0.0000000000000000000, -1.000000000000000000 ) ) ;
#180 = SPHERICAL_SURFACE ( 'NONE', #241, 3.043307086614173600 ) ;
#181 = CARTESIAN_POINT ( 'NONE',  ( 0.0000000000000000000, 0.0000000000000000000, 0.0000000000000000000 ) ) ;
#182 = ORIENTED_EDGE ( 'NONE', *, *, #236, .F. ) ;
#183 = CC_DESIGN_SECURITY_CLASSIFICATION ( #127, ( #10 ) ) ;
#184 = EDGE_CURVE ( 'NONE', #320, #169, #259, .T. ) ;
#185 = MANIFOLD_SOLID_BREP ( 'TTN031790-1-solid1', #68 ) ;
#186 = ADVANCED_FACE ( 'NONE', ( #290 ), #315, .T. ) ;
#187 = VERTEX_POINT ( 'NONE', #156 ) ;
#188 = VERTEX_POINT ( 'NONE', #257 ) ;
#189 = CC_DESIGN_PERSON_AND_ORGANIZATION_ASSIGNMENT ( #351, #304, ( #201 ) ) ;
#190 = DIRECTION ( 'NONE',  ( -0.0000000000000000000, 0.0000000000000000000, -1.000000000000000000 ) ) ;
#191 = AXIS2_PLACEMENT_3D ( 'NONE', #307, #149, #204 ) ;
#192 = DIRECTION ( 'NONE',  ( 0.0000000000000000000, 1.000000000000000000, 0.0000000000000000000 ) ) ;
#193 = CIRCLE ( 'NONE', #134, 0.4922431375633679600 ) ;
#194 = DIRECTION ( 'NONE',  ( 0.0000000000000000000, -0.0000000000000000000, 1.000000000000000000 ) ) ;
#195 = ORIENTED_EDGE ( 'NONE', *, *, #34, .F. ) ;
#197 = APPLICATION_CONTEXT ( 'configuration controlled 3d designs of mechanical parts and assemblies' ) ;
#196 = PERSON_AND_ORGANIZATION ( #253, #217 ) ;
#198 = ORIENTED_EDGE ( 'NONE', *, *, #265, .T. ) ;
#199 = APPROVAL_ROLE ( '' ) ;
#200 = VECTOR ( 'NONE', #123, 39.37007874015748100 ) ;
#201 = PRODUCT_DEFINITION ( 'UNKNOWN', '', #10, #291 ) ;
#202 = CALENDAR_DATE ( 2014, 16, 9 ) ;
#203 = ORIENTED_EDGE ( 'NONE', *, *, #224, .T. ) ;
#204 = DIRECTION ( 'NONE',  ( 0.0000000000000000000, -1.000000000000000000, 0.0000000000000000000 ) ) ;
#205 = CARTESIAN_POINT ( 'NONE',  ( 0.06102362204724409700, -0.5000000000000000000, 6.123233995736766000E-017 ) ) ;
#206 = COORDINATED_UNIVERSAL_TIME_OFFSET ( 5, 0, .BEHIND. ) ;
#207 = FACE_OUTER_BOUND ( 'NONE', #313, .T. ) ;
#208 = EDGE_LOOP ( 'NONE', ( #152, #41, #51, #230, #216 ) ) ;
#209 = DIRECTION ( 'NONE',  ( 0.0000000000000000000, 0.0000000000000000000, 1.000000000000000000 ) ) ;
#210 = CONICAL_SURFACE ( 'NONE', #269, 0.4922431375633682400, 0.7028765580185089000 ) ;
#211 = ADVANCED_FACE ( 'NONE', ( #63 ), #210, .T. ) ;
#212 = DATE_AND_TIME ( #66, #106 ) ;
#213 = ADVANCED_BREP_SHAPE_REPRESENTATION ( 'TTN031789-E0W', ( #185, #348 ), #86 ) ;
#214 = ORIENTED_EDGE ( 'NONE', *, *, #34, .T. ) ;
#215 = CIRCLE ( 'NONE', #323, 3.043307086614174000 ) ;
#216 = ORIENTED_EDGE ( 'NONE', *, *, #167, .F. ) ;
#217 = ORGANIZATION ( 'UNSPECIFIED', 'UNSPECIFIED', '' ) ;
#218 = CARTESIAN_POINT ( 'NONE',  ( -0.05314960629921258000, -2.303884251733205900E-017, 0.0000000000000000000 ) ) ;
#219 = APPROVAL_PERSON_ORGANIZATION ( #280, #70, #74 ) ;
#220 = CARTESIAN_POINT ( 'NONE',  ( 0.01179488830051178900, -2.303884251733205600E-017, 0.0000000000000000000 ) ) ;
#221 = FACE_OUTER_BOUND ( 'NONE', #208, .T. ) ;
#222 = ORIENTED_EDGE ( 'NONE', *, *, #49, .T. ) ;
#223 = ORIENTED_EDGE ( 'NONE', *, *, #224, .F. ) ;
#224 = EDGE_CURVE ( 'NONE', #321, #187, #50, .T. ) ;
#225 = AXIS2_PLACEMENT_3D ( 'NONE', #220, #324, #272 ) ;
#226 =( CONVERSION_BASED_UNIT ( 'INCH', #334 ) LENGTH_UNIT ( ) NAMED_UNIT ( #107 ) );
#227 = CIRCLE ( 'NONE', #225, 0.5000000000000000000 ) ;
#228 = CARTESIAN_POINT ( 'NONE',  ( 0.02095057842036628800, 3.771852660231294100E-017, -0.4922431375633679600 ) ) ;
#229 = CARTESIAN_POINT ( 'NONE',  ( 0.01179488830051178900, -0.5000000000000000000, 6.123233995736766000E-017 ) ) ;
#230 = ORIENTED_EDGE ( 'NONE', *, *, #184, .F. ) ;
#231 = ORIENTED_EDGE ( 'NONE', *, *, #248, .F. ) ;
#232 = DIRECTION ( 'NONE',  ( -1.000000000000000000, -3.106338619979413100E-032, 0.0000000000000000000 ) ) ;
#233 = EDGE_CURVE ( 'NONE', #133, #169, #55, .T. ) ;
#234 = LOCAL_TIME ( 13, 32, 20.00000000000000000, #118 ) ;
#235 = ADVANCED_FACE ( 'NONE', ( #322 ), #60, .T. ) ;
#236 = EDGE_CURVE ( 'NONE', #21, #90, #116, .T. ) ;
#237 = FACE_OUTER_BOUND ( 'NONE', #246, .T. ) ;
#238 = VERTEX_POINT ( 'NONE', #335 ) ;
#239 = CARTESIAN_POINT ( 'NONE',  ( 0.02095057842036628800, 0.4922431375633700700, 0.0000000000000000000 ) ) ;
#240 = AXIS2_PLACEMENT_3D ( 'NONE', #25, #243, #266 ) ;
#241 = AXIS2_PLACEMENT_3D ( 'NONE', #363, #112, #24 ) ;
#242 = PRODUCT_DEFINITION_SHAPE ( 'NONE', 'NONE',  #201 ) ;
#243 = DIRECTION ( 'NONE',  ( 1.000000000000000000, -0.0000000000000000000, -0.0000000000000000000 ) ) ;
#244 = DIRECTION ( 'NONE',  ( 0.0000000000000000000, 0.0000000000000000000, -1.000000000000000000 ) ) ;
#245 = DATE_AND_TIME ( #177, #234 ) ;
#246 = EDGE_LOOP ( 'NONE', ( #37, #252, #301, #139 ) ) ;
#247 = EDGE_LOOP ( 'NONE', ( #153, #198 ) ) ;
#248 = EDGE_CURVE ( 'NONE', #22, #170, #193, .T. ) ;
#249 =( LENGTH_UNIT ( ) NAMED_UNIT ( * ) SI_UNIT ( $, .METRE. ) );
#250 = CARTESIAN_POINT ( 'NONE',  ( 0.02095057842036683600, -2.303884251733205600E-017, 0.0000000000000000000 ) ) ;
#251 = DIRECTION ( 'NONE',  ( 0.0000000000000000000, 0.0000000000000000000, 1.000000000000000000 ) ) ;
#252 = ORIENTED_EDGE ( 'NONE', *, *, #8, .T. ) ;
#253 = PERSON ( 'UNSPECIFIED', 'UNSPECIFIED', 'UNSPECIFIED', ('UNSPECIFIED'), ('UNSPECIFIED'), ('UNSPECIFIED') ) ;
#254 = ORIENTED_EDGE ( 'NONE', *, *, #44, .F. ) ;
#255 = SECURITY_CLASSIFICATION_LEVEL ( 'unclassified' ) ;
#256 = DIRECTION ( 'NONE',  ( 0.0000000000000000000, 1.000000000000000000, 0.0000000000000000000 ) ) ;
#257 = CARTESIAN_POINT ( 'NONE',  ( -0.06102362204724409700, 3.771135303092246100E-017, 0.4921259842519684100 ) ) ;
#258 = AXIS2_PLACEMENT_3D ( 'NONE', #104, #289, #16 ) ;
#259 = CIRCLE ( 'NONE', #258, 0.5000000000000000000 ) ;
#260 = EDGE_CURVE ( 'NONE', #90, #347, #267, .T. ) ;
#261 = ORIENTED_EDGE ( 'NONE', *, *, #184, .T. ) ;
#262 = APPROVAL ( #92, 'UNSPECIFIED' ) ;
#263 = LOCAL_TIME ( 13, 32, 20.00000000000000000, #206 ) ;
#264 = VECTOR ( 'NONE', #326, 39.37007874015748100 ) ;
#265 = EDGE_CURVE ( 'NONE', #188, #133, #20, .T. ) ;
#266 = DIRECTION ( 'NONE',  ( 0.0000000000000000000, 8.881784197001252300E-016, 1.000000000000000000 ) ) ;
#267 = CIRCLE ( 'NONE', #109, 0.5000000000000000000 ) ;
#268 = CARTESIAN_POINT ( 'NONE',  ( 0.01179488830051178900, -2.303884251733205600E-017, 0.5000000000000000000 ) ) ;
#269 = AXIS2_PLACEMENT_3D ( 'NONE', #338, #333, #251 ) ;
#270 = DIRECTION ( 'NONE',  ( 1.000000000000000000, -0.0000000000000000000, -0.0000000000000000000 ) ) ;
#271 = DATE_AND_TIME ( #202, #263 ) ;
#272 = DIRECTION ( 'NONE',  ( 0.0000000000000000000, 0.0000000000000000000, -1.000000000000000000 ) ) ;
#273 = DIRECTION ( 'NONE',  ( 0.0000000000000000000, 0.0000000000000000000, 1.000000000000000000 ) ) ;
#274 = ORIENTED_EDGE ( 'NONE', *, *, #265, .F. ) ;
#275 = EDGE_CURVE ( 'NONE', #188, #187, #355, .T. ) ;
#276 = VERTEX_POINT ( 'NONE', #229 ) ;
#277 = DIRECTION ( 'NONE',  ( 0.0000000000000000000, -1.000000000000000000, 0.0000000000000000000 ) ) ;
#278 = AXIS2_PLACEMENT_3D ( 'NONE', #75, #126, #256 ) ;
#279 = CARTESIAN_POINT ( 'NONE',  ( 0.02095057842036628800, -3.726976282444503600E-016, 0.0000000000000000000 ) ) ;
#280 = PERSON_AND_ORGANIZATION ( #253, #217 ) ;
#281 = DIRECTION ( 'NONE',  ( -1.000000000000000000, 0.0000000000000000000, 0.0000000000000000000 ) ) ;
#282 = CARTESIAN_POINT ( 'NONE',  ( 0.01179488830051178900, -2.303884251733205600E-017, 0.0000000000000000000 ) ) ;
#283 = APPLICATION_CONTEXT ( 'configuration controlled 3d designs of mechanical parts and assemblies' ) ;
#284 = PERSON_AND_ORGANIZATION_ROLE ( 'design_supplier' ) ;
#285 = DIRECTION ( 'NONE',  ( 0.0000000000000000000, -8.881784197001252300E-016, -1.000000000000000000 ) ) ;
#286 = CC_DESIGN_APPROVAL ( #262, ( #127 ) ) ;
#287 = FACE_OUTER_BOUND ( 'NONE', #52, .T. ) ;
#288 = ORIENTED_EDGE ( 'NONE', *, *, #163, .F. ) ;
#289 = DIRECTION ( 'NONE',  ( 1.000000000000000000, -0.0000000000000000000, -0.0000000000000000000 ) ) ;
#290 = FACE_OUTER_BOUND ( 'NONE', #247, .T. ) ;
#291 = DESIGN_CONTEXT ( 'detailed design', #283, 'design' ) ;
#292 = PERSON_AND_ORGANIZATION ( #253, #217 ) ;
#293 = CIRCLE ( 'NONE', #295, 0.5000000000000000000 ) ;
#294 = ORIENTED_EDGE ( 'NONE', *, *, #140, .T. ) ;
#295 = AXIS2_PLACEMENT_3D ( 'NONE', #172, #2, #329 ) ;
#296 = CYLINDRICAL_SURFACE ( 'NONE', #278, 0.5000000000000000000 ) ;
#297 = DIRECTION ( 'NONE',  ( 0.0000000000000000000, 0.0000000000000000000, 1.000000000000000000 ) ) ;
#298 = CALENDAR_DATE ( 2014, 16, 9 ) ;
#299 = CARTESIAN_POINT ( 'NONE',  ( -0.05314960629921258000, -2.303884251733205900E-017, 0.0000000000000000000 ) ) ;
#300 = DIRECTION ( 'NONE',  ( 0.0000000000000000000, 0.0000000000000000000, 1.000000000000000000 ) ) ;
#301 = ORIENTED_EDGE ( 'NONE', *, *, #163, .T. ) ;
#302 = CC_DESIGN_DATE_AND_TIME_ASSIGNMENT ( #18, #33, ( #127 ) ) ;
#303 = ORIENTED_EDGE ( 'NONE', *, *, #28, .F. ) ;
#304 = PERSON_AND_ORGANIZATION_ROLE ( 'creator' ) ;
#305 = DIRECTION ( 'NONE',  ( 0.0000000000000000000, 0.0000000000000000000, -1.000000000000000000 ) ) ;
#306 = CARTESIAN_POINT ( 'NONE',  ( 0.01179488830051178900, -2.303884251733205600E-017, 0.0000000000000000000 ) ) ;
#307 = CARTESIAN_POINT ( 'NONE',  ( -0.06102362204724409700, -2.303884251733205900E-017, 0.0000000000000000000 ) ) ;
#308 = DIRECTION ( 'NONE',  ( -1.000000000000000000, 0.0000000000000000000, 0.0000000000000000000 ) ) ;
#309 = DIRECTION ( 'NONE',  ( 1.000000000000000000, 3.106338619979413100E-032, -0.0000000000000000000 ) ) ;
#310 = APPLICATION_PROTOCOL_DEFINITION ( 'international standard', 'config_control_design', 1994, #283 ) ;
#311 = LINE ( 'NONE', #111, #264 ) ;
#312 = ORIENTED_EDGE ( 'NONE', *, *, #132, .T. ) ;
#313 = EDGE_LOOP ( 'NONE', ( #59, #261, #294, #222, #114, #312 ) ) ;
#314 = CONICAL_SURFACE ( 'NONE', #344, 0.5000000000000000000, 0.7853981633974526100 ) ;
#315 = PLANE ( 'NONE',  #103 ) ;
#316 = AXIS2_PLACEMENT_3D ( 'NONE', #5, #137, #297 ) ;
#317 = DIRECTION ( 'NONE',  ( 3.106338619979413100E-032, -1.000000000000000000, 0.0000000000000000000 ) ) ;
#318 = AXIS2_PLACEMENT_3D ( 'NONE', #343, #11, #43 ) ;
#319 = LINE ( 'NONE', #94, #81 ) ;
#320 = VERTEX_POINT ( 'NONE', #101 ) ;
#321 = VERTEX_POINT ( 'NONE', #35 ) ;
#322 = FACE_OUTER_BOUND ( 'NONE', #359, .T. ) ;
#323 = AXIS2_PLACEMENT_3D ( 'NONE', #361, #190, #87 ) ;
#324 = DIRECTION ( 'NONE',  ( -1.000000000000000000, 0.0000000000000000000, 0.0000000000000000000 ) ) ;
#325 = AXIS2_PLACEMENT_3D ( 'NONE', #339, #102, #73 ) ;
#326 = DIRECTION ( 'NONE',  ( -0.7629858959121866800, 0.0000000000000000000, 0.6464151318147478600 ) ) ;
#327 = ORIENTED_EDGE ( 'NONE', *, *, #44, .T. ) ;
#328 = ORIENTED_EDGE ( 'NONE', *, *, #233, .F. ) ;
#329 = DIRECTION ( 'NONE',  ( 0.0000000000000000000, 0.0000000000000000000, -1.000000000000000000 ) ) ;
#330 = PERSON_AND_ORGANIZATION ( #253, #217 ) ;
#331 = AXIS2_PLACEMENT_3D ( 'NONE', #64, #358, #277 ) ;
#332 = CYLINDRICAL_SURFACE ( 'NONE', #19, 0.5000000000000000000 ) ;
#333 = DIRECTION ( 'NONE',  ( -1.000000000000000000, 0.0000000000000000000, 0.0000000000000000000 ) ) ;
#334 = LENGTH_MEASURE_WITH_UNIT ( LENGTH_MEASURE( 0.02539999999999999900 ), #249 );
#335 = CARTESIAN_POINT ( 'NONE',  ( 0.02095057842036628800, -2.303884251733227500E-017, 0.4922431375633679600 ) ) ;
#336 = CARTESIAN_POINT ( 'NONE',  ( -0.05314960629921258000, -2.303884251733205900E-017, 0.0000000000000000000 ) ) ;
#337 = ORIENTED_EDGE ( 'NONE', *, *, #236, .T. ) ;
#338 = CARTESIAN_POINT ( 'NONE',  ( 0.02095057842036683600, -2.303884251733205600E-017, 0.0000000000000000000 ) ) ;
#339 = CARTESIAN_POINT ( 'NONE',  ( -0.05314960629921258000, -2.303884251733205900E-017, 0.0000000000000000000 ) ) ;
#340 = DIRECTION ( 'NONE',  ( 0.0000000000000000000, -8.881784197001252300E-016, 1.000000000000000000 ) ) ;
#341 = CIRCLE ( 'NONE', #325, 0.5000000000000000000 ) ;
#342 = CC_DESIGN_PERSON_AND_ORGANIZATION_ASSIGNMENT ( #136, #119, ( #127 ) ) ;
#343 = CARTESIAN_POINT ( 'NONE',  ( -2.982283464566929200, -3.726976282444503600E-016, 0.0000000000000000000 ) ) ;
#344 = AXIS2_PLACEMENT_3D ( 'NONE', #299, #270, #244 ) ;
#345 = VECTOR ( 'NONE', #364, 39.37007874015748100 ) ;
#346 = CC_DESIGN_APPROVAL ( #166, ( #201 ) ) ;
#347 = VERTEX_POINT ( 'NONE', #69 ) ;
#348 = AXIS2_PLACEMENT_3D ( 'NONE', #181, #273, #147 ) ;
#349 = LINE ( 'NONE', #205, #71 ) ;
#350 = ADVANCED_FACE ( 'NONE', ( #120 ), #332, .T. ) ;
#351 = PERSON_AND_ORGANIZATION ( #253, #217 ) ;
#352 = ORIENTED_EDGE ( 'NONE', *, *, #57, .T. ) ;
#353 = UNCERTAINTY_MEASURE_WITH_UNIT (LENGTH_MEASURE( 1.000000000000000100E-005 ), #226, 'distance_accuracy_value', 'NONE');
#354 = ADVANCED_FACE ( 'NONE', ( #159 ), #26, .T. ) ;
#355 = LINE ( 'NONE', #96, #200 ) ;
#356 = DIRECTION ( 'NONE',  ( 1.000000000000000000, 3.106338619979413100E-032, -0.0000000000000000000 ) ) ;
#357 = CIRCLE ( 'NONE', #240, 0.4922431375633679600 ) ;
#358 = DIRECTION ( 'NONE',  ( -1.000000000000000000, -3.106338619979413100E-032, 0.0000000000000000000 ) ) ;
#359 = EDGE_LOOP ( 'NONE', ( #254, #231, #108, #352, #195, #40 ) ) ;
#360 = CC_DESIGN_PERSON_AND_ORGANIZATION_ASSIGNMENT ( #93, #151, ( #10 ) ) ;
#361 = CARTESIAN_POINT ( 'NONE',  ( -2.982283464566929200, -3.726976282444503600E-016, 0.0000000000000000000 ) ) ;
#362 = APPROVAL_DATE_TIME ( #79, #70 ) ;
#363 = CARTESIAN_POINT ( 'NONE',  ( -2.982283464566929200, -3.726976282444503600E-016, 0.0000000000000000000 ) ) ;
#364 = DIRECTION ( 'NONE',  ( -0.7629858959121866800, 7.916302220973453700E-017, -0.6464151318147478600 ) ) ;
ENDSEC;
END-ISO-10303-21;
