ISO-10303-21;
HEADER;
FILE_DESCRIPTION (( 'STEP AP203' ),
    '1' );
FILE_NAME ('24994-E0W.STEP',
    '2012-09-28T16:20:12',
    ( 'Admin' ),
    ( 'Thorlabs, Inc.' ),
    'SwSTEP 2.0',
    'SolidWorks 2011',
    '' );
FILE_SCHEMA (( 'CONFIG_CONTROL_DESIGN' ));
ENDSEC;

DATA;
#1 = DIRECTION ( 'NONE',  ( 1.000000000000000000, 0.0000000000000000000, 0.0000000000000000000 ) ) ;
#2 = CARTESIAN_POINT ( 'NONE',  ( 0.0000000000000000000, 0.0000000000000000000, -136.7249915670381000 ) ) ;
#3 = FACE_OUTER_BOUND ( 'NONE', #236, .T. ) ;
#4 = DIRECTION ( 'NONE',  ( 0.7071067811865474600, 0.0000000000000000000, 0.7071067811865475700 ) ) ;
#5 = VECTOR ( 'NONE', #4, 1000.000000000000000 ) ;
#6 = AXIS2_PLACEMENT_3D ( 'NONE', #2, #21, #1 ) ;
#7 = DIRECTION ( 'NONE',  ( 1.000000000000000000, 0.0000000000000000000, 0.0000000000000000000 ) ) ;
#8 = DIRECTION ( 'NONE',  ( 0.0000000000000000000, -0.0000000000000000000, 1.000000000000000000 ) ) ;
#9 = AXIS2_PLACEMENT_3D ( 'NONE', #23, #8, #7 ) ;
#10 = CIRCLE ( 'NONE', #34, 12.55857864376269200 ) ;
#11 = CARTESIAN_POINT ( 'NONE',  ( 12.55857864376269000, 0.0000000000000000000, -1.295000000000001000 ) ) ;
#12 = LINE ( 'NONE', #11, #5 ) ;
#13 = CIRCLE ( 'NONE', #30, 12.69999999999999900 ) ;
#14 = CARTESIAN_POINT ( 'NONE',  ( 0.0000000000000000000, 0.0000000000000000000, 1.294999999999999900 ) ) ;
#15 = CARTESIAN_POINT ( 'NONE',  ( 0.0000000000000000000, 0.0000000000000000000, 0.7180451101900537900 ) ) ;
#16 = FACE_OUTER_BOUND ( 'NONE', #225, .T. ) ;
#17 = DIRECTION ( 'NONE',  ( 1.000000000000000000, 0.0000000000000000000, 0.0000000000000000000 ) ) ;
#18 = DIRECTION ( 'NONE',  ( 1.000000000000000000, 0.0000000000000000000, 0.0000000000000000000 ) ) ;
#19 = DIRECTION ( 'NONE',  ( -0.0000000000000000000, -0.0000000000000000000, 1.000000000000000000 ) ) ;
#20 = DIRECTION ( 'NONE',  ( -0.0000000000000000000, -0.0000000000000000000, 1.000000000000000000 ) ) ;
#21 = DIRECTION ( 'NONE',  ( -0.0000000000000000000, -0.0000000000000000000, 1.000000000000000000 ) ) ;
#22 = AXIS2_PLACEMENT_3D ( 'NONE', #52, #20, #17 ) ;
#23 = CARTESIAN_POINT ( 'NONE',  ( 0.0000000000000000000, 0.0000000000000000000, -1.294999999999999900 ) ) ;
#24 = PLANE ( 'NONE',  #9 ) ;
#25 = DIRECTION ( 'NONE',  ( -0.0000000000000000000, -0.0000000000000000000, 1.000000000000000000 ) ) ;
#26 = CIRCLE ( 'NONE', #58, 12.69999999999999900 ) ;
#27 = FACE_OUTER_BOUND ( 'NONE', #209, .T. ) ;
#28 = CIRCLE ( 'NONE', #60, 138.0200000000000400 ) ;
#29 = AXIS2_PLACEMENT_3D ( 'NONE', #74, #73, #69 ) ;
#30 = AXIS2_PLACEMENT_3D ( 'NONE', #33, #25, #75 ) ;
#31 = DIRECTION ( 'NONE',  ( 1.000000000000000000, 0.0000000000000000000, 0.0000000000000000000 ) ) ;
#32 = DIRECTION ( 'NONE',  ( -0.0000000000000000000, -0.0000000000000000000, 1.000000000000000000 ) ) ;
#33 = CARTESIAN_POINT ( 'NONE',  ( 0.0000000000000000000, 0.0000000000000000000, 0.5766237539527423500 ) ) ;
#34 = AXIS2_PLACEMENT_3D ( 'NONE', #15, #32, #31 ) ;
#35 = CONICAL_SURFACE ( 'NONE', #22, 12.55857864376269000, 0.7853981633974482800 ) ;
#36 = CARTESIAN_POINT ( 'NONE',  ( 0.0000000000000000000, 0.0000000000000000000, -136.7249915670381000 ) ) ;
#37 = TOROIDAL_SURFACE ( 'NONE', #6, -0.04824763972854050100, 138.0200000000000400 ) ;
#38 = DIRECTION ( 'NONE',  ( -0.0000000000000000000, -0.0000000000000000000, 1.000000000000000000 ) ) ;
#39 = VECTOR ( 'NONE', #38, 1000.000000000000000 ) ;
#40 = CARTESIAN_POINT ( 'NONE',  ( 12.69999999999999900, 0.0000000000000000000, 16.01355499976209300 ) ) ;
#41 = LINE ( 'NONE', #40, #39 ) ;
#42 = AXIS2_PLACEMENT_3D ( 'NONE', #36, #19, #18 ) ;
#43 = FACE_OUTER_BOUND ( 'NONE', #224, .T. ) ;
#44 = CIRCLE ( 'NONE', #49, 138.0200000000000400 ) ;
#45 = FACE_OUTER_BOUND ( 'NONE', #226, .T. ) ;
#46 = DIRECTION ( 'NONE',  ( -1.000000000000000000, 1.224646799147353200E-016, 0.0000000000000000000 ) ) ;
#47 = DIRECTION ( 'NONE',  ( 1.224646799147353200E-016, 1.000000000000000000, 0.0000000000000000000 ) ) ;
#48 = CARTESIAN_POINT ( 'NONE',  ( 0.04824763972854050100, -5.908631755997179300E-018, -136.7249915670381000 ) ) ;
#49 = AXIS2_PLACEMENT_3D ( 'NONE', #48, #47, #46 ) ;
#50 = CYLINDRICAL_SURFACE ( 'NONE', #29, 12.69999999999999900 ) ;
#51 = TOROIDAL_SURFACE ( 'NONE', #42, -0.04824763972854050100, 138.0200000000000400 ) ;
#52 = CARTESIAN_POINT ( 'NONE',  ( 0.0000000000000000000, 0.0000000000000000000, -1.295000000000001000 ) ) ;
#53 = DIRECTION ( 'NONE',  ( 0.7071067811865388000, 8.659560562354826900E-017, -0.7071067811865561200 ) ) ;
#54 = CARTESIAN_POINT ( 'NONE',  ( 12.69999999999999900, 1.555301434917138400E-015, 0.5766237539527423500 ) ) ;
#55 = LINE ( 'NONE', #54, #81 ) ;
#56 = DIRECTION ( 'NONE',  ( 1.000000000000000000, 0.0000000000000000000, 0.0000000000000000000 ) ) ;
#57 = DIRECTION ( 'NONE',  ( -0.0000000000000000000, -0.0000000000000000000, 1.000000000000000000 ) ) ;
#58 = AXIS2_PLACEMENT_3D ( 'NONE', #68, #57, #56 ) ;
#59 = AXIS2_PLACEMENT_3D ( 'NONE', #85, #77, #76 ) ;
#60 = AXIS2_PLACEMENT_3D ( 'NONE', #89, #88, #87 ) ;
#61 = AXIS2_PLACEMENT_3D ( 'NONE', #86, #84, #83 ) ;
#62 = DIRECTION ( 'NONE',  ( 1.000000000000000000, 0.0000000000000000000, 0.0000000000000000000 ) ) ;
#63 = DIRECTION ( 'NONE',  ( -0.0000000000000000000, -0.0000000000000000000, 1.000000000000000000 ) ) ;
#64 = CARTESIAN_POINT ( 'NONE',  ( 0.0000000000000000000, 0.0000000000000000000, -1.295000000000001000 ) ) ;
#65 = AXIS2_PLACEMENT_3D ( 'NONE', #64, #63, #62 ) ;
#66 = CIRCLE ( 'NONE', #65, 12.55857864376269000 ) ;
#67 = FACE_OUTER_BOUND ( 'NONE', #249, .T. ) ;
#68 = CARTESIAN_POINT ( 'NONE',  ( 0.0000000000000000000, 0.0000000000000000000, -1.153578643762691400 ) ) ;
#69 = DIRECTION ( 'NONE',  ( 1.000000000000000000, 0.0000000000000000000, 0.0000000000000000000 ) ) ;
#70 = CARTESIAN_POINT ( 'NONE',  ( -12.55857864376269000, 1.537982313792428700E-015, -1.295000000000001000 ) ) ;
#71 = LINE ( 'NONE', #70, #79 ) ;
#72 = CONICAL_SURFACE ( 'NONE', #61, 12.69999999999999900, 0.7853981633974360700 ) ;
#73 = DIRECTION ( 'NONE',  ( -0.0000000000000000000, -0.0000000000000000000, 1.000000000000000000 ) ) ;
#74 = CARTESIAN_POINT ( 'NONE',  ( 0.0000000000000000000, 0.0000000000000000000, 16.01355499976209300 ) ) ;
#75 = DIRECTION ( 'NONE',  ( 1.000000000000000000, 0.0000000000000000000, 0.0000000000000000000 ) ) ;
#76 = DIRECTION ( 'NONE',  ( 1.000000000000000000, 0.0000000000000000000, 0.0000000000000000000 ) ) ;
#77 = DIRECTION ( 'NONE',  ( -0.0000000000000000000, -0.0000000000000000000, 1.000000000000000000 ) ) ;
#78 = DIRECTION ( 'NONE',  ( -0.7071067811865474600, 8.659560562354931600E-017, 0.7071067811865475700 ) ) ;
#79 = VECTOR ( 'NONE', #78, 1000.000000000000000 ) ;
#80 = CONICAL_SURFACE ( 'NONE', #59, 12.55857864376269000, 0.7853981633974482800 ) ;
#81 = VECTOR ( 'NONE', #53, 1000.000000000000100 ) ;
#82 = FACE_OUTER_BOUND ( 'NONE', #193, .T. ) ;
#83 = DIRECTION ( 'NONE',  ( -1.000000000000000000, 0.0000000000000000000, 0.0000000000000000000 ) ) ;
#84 = DIRECTION ( 'NONE',  ( 0.0000000000000000000, 0.0000000000000000000, -1.000000000000000000 ) ) ;
#85 = CARTESIAN_POINT ( 'NONE',  ( 0.0000000000000000000, 0.0000000000000000000, -1.295000000000001000 ) ) ;
#86 = CARTESIAN_POINT ( 'NONE',  ( 0.0000000000000000000, 0.0000000000000000000, 0.5766237539527423500 ) ) ;
#87 = DIRECTION ( 'NONE',  ( 0.0000000000000000000, 0.0000000000000000000, -1.000000000000000000 ) ) ;
#88 = DIRECTION ( 'NONE',  ( 0.0000000000000000000, -1.000000000000000000, 0.0000000000000000000 ) ) ;
#89 = CARTESIAN_POINT ( 'NONE',  ( -0.04824763972854050100, 0.0000000000000000000, -136.7249915670381000 ) ) ;
#90 = CARTESIAN_POINT ( 'NONE',  ( 12.55857864376269000, 0.0000000000000000000, -1.295000000000001000 ) ) ;
#91 = CARTESIAN_POINT ( 'NONE',  ( 12.69999999999999900, 0.0000000000000000000, -1.153578643762691400 ) ) ;
#92 = APPROVAL_ROLE ( '' ) ;
#93 = APPROVAL ( #94, 'UNSPECIFIED' ) ;
#94 = APPROVAL_STATUS ( 'not_yet_approved' ) ;
#95 = PERSON_AND_ORGANIZATION ( #154, #153 ) ;
#96 = CC_DESIGN_DATE_AND_TIME_ASSIGNMENT ( #98, #97, ( #105 ) ) ;
#97 = DATE_TIME_ROLE ( 'classification_date' ) ;
#98 = DATE_AND_TIME ( #99, #100 ) ;
#99 = CALENDAR_DATE ( 2012, 28, 9 ) ;
#100 = LOCAL_TIME ( 12, 20, 12.00000000000000000, #101 ) ;
#101 = COORDINATED_UNIVERSAL_TIME_OFFSET ( 5, 0, .BEHIND. ) ;
#102 = CC_DESIGN_PERSON_AND_ORGANIZATION_ASSIGNMENT ( #104, #103, ( #105 ) ) ;
#103 = PERSON_AND_ORGANIZATION_ROLE ( 'classification_officer' ) ;
#104 = PERSON_AND_ORGANIZATION ( #154, #153 ) ;
#105 = SECURITY_CLASSIFICATION ( '', '', #106 ) ;
#106 = SECURITY_CLASSIFICATION_LEVEL ( 'unclassified' ) ;
#107 = APPLICATION_CONTEXT ( 'configuration controlled 3d designs of mechanical parts and assemblies' ) ;
#108 = DIRECTION ( 'NONE',  ( 1.000000000000000000, 0.0000000000000000000, 0.0000000000000000000 ) ) ;
#109 = CC_DESIGN_PERSON_AND_ORGANIZATION_ASSIGNMENT ( #111, #110, ( #178 ) ) ;
#110 = PERSON_AND_ORGANIZATION_ROLE ( 'design_supplier' ) ;
#111 = PERSON_AND_ORGANIZATION ( #154, #153 ) ;
#112 = CC_DESIGN_PERSON_AND_ORGANIZATION_ASSIGNMENT ( #114, #113, ( #178 ) ) ;
#113 = PERSON_AND_ORGANIZATION_ROLE ( 'creator' ) ;
#114 = PERSON_AND_ORGANIZATION ( #154, #153 ) ;
#115 = CC_DESIGN_APPROVAL ( #175, ( #178 ) ) ;
#116 = APPROVAL_DATE_TIME ( #169, #175 ) ;
#117 =( LENGTH_UNIT ( ) NAMED_UNIT ( * ) SI_UNIT ( .MILLI., .METRE. ) );
#118 = PRODUCT ( '24994-E0W', '24994-E0W', '', ( #119 ) ) ;
#119 = MECHANICAL_CONTEXT ( 'NONE', #107, 'mechanical' ) ;
#120 = APPLICATION_PROTOCOL_DEFINITION ( 'international standard', 'config_control_design', 1994, #107 ) ;
#121 = APPROVAL_STATUS ( 'not_yet_approved' ) ;
#122 = PERSON_AND_ORGANIZATION ( #154, #153 ) ;
#123 = PRODUCT_DEFINITION ( 'UNKNOWN', '', #178, #124 ) ;
#124 = DESIGN_CONTEXT ( 'detailed design', #126, 'design' ) ;
#125 = APPLICATION_PROTOCOL_DEFINITION ( 'international standard', 'config_control_design', 1994, #126 ) ;
#126 = APPLICATION_CONTEXT ( 'configuration controlled 3d designs of mechanical parts and assemblies' ) ;
#127 = CC_DESIGN_PERSON_AND_ORGANIZATION_ASSIGNMENT ( #155, #128, ( #118 ) ) ;
#128 = PERSON_AND_ORGANIZATION_ROLE ( 'design_owner' ) ;
#129 = CARTESIAN_POINT ( 'NONE',  ( 0.0000000000000000000, 0.0000000000000000000, 0.0000000000000000000 ) ) ;
#130 = CC_DESIGN_APPROVAL ( #138, ( #123 ) ) ;
#131 = APPROVAL_DATE_TIME ( #132, #138 ) ;
#132 = DATE_AND_TIME ( #133, #134 ) ;
#133 = CALENDAR_DATE ( 2012, 28, 9 ) ;
#134 = LOCAL_TIME ( 12, 20, 12.00000000000000000, #135 ) ;
#135 = COORDINATED_UNIVERSAL_TIME_OFFSET ( 5, 0, .BEHIND. ) ;
#136 = APPROVAL_PERSON_ORGANIZATION ( #122, #138, #137 ) ;
#137 = APPROVAL_ROLE ( '' ) ;
#138 = APPROVAL ( #121, 'UNSPECIFIED' ) ;
#139 = DIRECTION ( 'NONE',  ( 0.0000000000000000000, 0.0000000000000000000, 1.000000000000000000 ) ) ;
#140 = ADVANCED_BREP_SHAPE_REPRESENTATION ( '24994-E0W', ( #191, #141 ), #157 ) ;
#141 = AXIS2_PLACEMENT_3D ( 'NONE', #129, #139, #108 ) ;
#142 = SHAPE_DEFINITION_REPRESENTATION ( #156, #140 ) ;
#143 =( NAMED_UNIT ( * ) PLANE_ANGLE_UNIT ( ) SI_UNIT ( $, .RADIAN. ) );
#144 = PRODUCT_RELATED_PRODUCT_CATEGORY ( 'detail', '', ( #118 ) ) ;
#145 = CC_DESIGN_SECURITY_CLASSIFICATION ( #105, ( #178 ) ) ;
#146 = CC_DESIGN_APPROVAL ( #93, ( #105 ) ) ;
#147 = APPROVAL_DATE_TIME ( #148, #93 ) ;
#148 = DATE_AND_TIME ( #149, #150 ) ;
#149 = CALENDAR_DATE ( 2012, 28, 9 ) ;
#150 = LOCAL_TIME ( 12, 20, 12.00000000000000000, #151 ) ;
#151 = COORDINATED_UNIVERSAL_TIME_OFFSET ( 5, 0, .BEHIND. ) ;
#152 = APPROVAL_PERSON_ORGANIZATION ( #95, #93, #92 ) ;
#153 = ORGANIZATION ( 'UNSPECIFIED', 'UNSPECIFIED', '' ) ;
#154 = PERSON ( 'UNSPECIFIED', 'UNSPECIFIED', 'UNSPECIFIED', ('UNSPECIFIED'), ('UNSPECIFIED'), ('UNSPECIFIED') ) ;
#155 = PERSON_AND_ORGANIZATION ( #154, #153 ) ;
#156 = PRODUCT_DEFINITION_SHAPE ( 'NONE', 'NONE',  #123 ) ;
#157 =( GEOMETRIC_REPRESENTATION_CONTEXT ( 3 ) GLOBAL_UNCERTAINTY_ASSIGNED_CONTEXT ( ( #168 ) ) GLOBAL_UNIT_ASSIGNED_CONTEXT ( ( #117, #143, #167 ) ) REPRESENTATION_CONTEXT ( 'NONE', 'WORKASPACE' ) );
#158 = CC_DESIGN_DATE_AND_TIME_ASSIGNMENT ( #160, #159, ( #123 ) ) ;
#159 = DATE_TIME_ROLE ( 'creation_date' ) ;
#160 = DATE_AND_TIME ( #161, #162 ) ;
#161 = CALENDAR_DATE ( 2012, 28, 9 ) ;
#162 = LOCAL_TIME ( 12, 20, 12.00000000000000000, #163 ) ;
#163 = COORDINATED_UNIVERSAL_TIME_OFFSET ( 5, 0, .BEHIND. ) ;
#164 = CC_DESIGN_PERSON_AND_ORGANIZATION_ASSIGNMENT ( #166, #165, ( #123 ) ) ;
#165 = PERSON_AND_ORGANIZATION_ROLE ( 'creator' ) ;
#166 = PERSON_AND_ORGANIZATION ( #154, #153 ) ;
#167 =( NAMED_UNIT ( * ) SI_UNIT ( $, .STERADIAN. ) SOLID_ANGLE_UNIT ( ) );
#168 = UNCERTAINTY_MEASURE_WITH_UNIT (LENGTH_MEASURE( 1.000000000000000100E-005 ), #117, 'distance_accuracy_value', 'NONE');
#169 = DATE_AND_TIME ( #170, #171 ) ;
#170 = CALENDAR_DATE ( 2012, 28, 9 ) ;
#171 = LOCAL_TIME ( 12, 20, 12.00000000000000000, #172 ) ;
#172 = COORDINATED_UNIVERSAL_TIME_OFFSET ( 5, 0, .BEHIND. ) ;
#173 = APPROVAL_PERSON_ORGANIZATION ( #177, #175, #174 ) ;
#174 = APPROVAL_ROLE ( '' ) ;
#175 = APPROVAL ( #176, 'UNSPECIFIED' ) ;
#176 = APPROVAL_STATUS ( 'not_yet_approved' ) ;
#177 = PERSON_AND_ORGANIZATION ( #154, #153 ) ;
#178 = PRODUCT_DEFINITION_FORMATION_WITH_SPECIFIED_SOURCE ( 'ANY', '', #118, .NOT_KNOWN. ) ;
#179 = ORIENTED_EDGE ( 'NONE', *, *, #181, .T. ) ;
#180 = VERTEX_POINT ( 'NONE', #275 ) ;
#181 = EDGE_CURVE ( 'NONE', #256, #180, #276, .T. ) ;
#182 = VERTEX_POINT ( 'NONE', #277 ) ;
#183 = ORIENTED_EDGE ( 'NONE', *, *, #254, .T. ) ;
#184 = ORIENTED_EDGE ( 'NONE', *, *, #194, .F. ) ;
#185 = EDGE_CURVE ( 'NONE', #260, #200, #271, .T. ) ;
#186 = ADVANCED_FACE ( 'NONE', ( #266 ), #267, .T. ) ;
#187 = ORIENTED_EDGE ( 'NONE', *, *, #188, .F. ) ;
#188 = EDGE_CURVE ( 'NONE', #182, #199, #295, .T. ) ;
#189 = ADVANCED_FACE ( 'NONE', ( #293 ), #257, .T. ) ;
#190 = DIRECTION ( 'NONE',  ( 1.000000000000000000, 0.0000000000000000000, 0.0000000000000000000 ) ) ;
#191 = MANIFOLD_SOLID_BREP ( '24994-001-1-solid1', #250 ) ;
#192 = ORIENTED_EDGE ( 'NONE', *, *, #194, .T. ) ;
#193 = EDGE_LOOP ( 'NONE', ( #262, #248, #207, #218 ) ) ;
#194 = EDGE_CURVE ( 'NONE', #195, #199, #268, .T. ) ;
#195 = VERTEX_POINT ( 'NONE', #294 ) ;
#196 = EDGE_CURVE ( 'NONE', #197, #182, #290, .T. ) ;
#197 = VERTEX_POINT ( 'NONE', #300 ) ;
#198 = DIRECTION ( 'NONE',  ( -0.0000000000000000000, -0.0000000000000000000, 1.000000000000000000 ) ) ;
#199 = VERTEX_POINT ( 'NONE', #301 ) ;
#200 = VERTEX_POINT ( 'NONE', #299 ) ;
#201 = ORIENTED_EDGE ( 'NONE', *, *, #196, .F. ) ;
#202 = ORIENTED_EDGE ( 'NONE', *, *, #205, .F. ) ;
#203 = EDGE_CURVE ( 'NONE', #180, #199, #298, .T. ) ;
#204 = ORIENTED_EDGE ( 'NONE', *, *, #237, .F. ) ;
#205 = EDGE_CURVE ( 'NONE', #256, #195, #41, .T. ) ;
#206 = ORIENTED_EDGE ( 'NONE', *, *, #203, .T. ) ;
#207 = ORIENTED_EDGE ( 'NONE', *, *, #181, .F. ) ;
#208 = EDGE_CURVE ( 'NONE', #182, #221, #44, .T. ) ;
#209 = EDGE_LOOP ( 'NONE', ( #230, #233, #231, #242 ) ) ;
#210 = ORIENTED_EDGE ( 'NONE', *, *, #238, .F. ) ;
#211 = ADVANCED_FACE ( 'NONE', ( #43 ), #35, .T. ) ;
#212 = ADVANCED_FACE ( 'NONE', ( #16 ), #51, .T. ) ;
#213 = ORIENTED_EDGE ( 'NONE', *, *, #240, .T. ) ;
#214 = ADVANCED_FACE ( 'NONE', ( #45 ), #24, .F. ) ;
#215 = ORIENTED_EDGE ( 'NONE', *, *, #208, .F. ) ;
#216 = ORIENTED_EDGE ( 'NONE', *, *, #240, .F. ) ;
#217 = ORIENTED_EDGE ( 'NONE', *, *, #208, .T. ) ;
#218 = ORIENTED_EDGE ( 'NONE', *, *, #220, .F. ) ;
#219 = ORIENTED_EDGE ( 'NONE', *, *, #185, .F. ) ;
#220 = EDGE_CURVE ( 'NONE', #260, #256, #12, .T. ) ;
#221 = VERTEX_POINT ( 'NONE', #14 ) ;
#222 = ORIENTED_EDGE ( 'NONE', *, *, #228, .T. ) ;
#223 = ADVANCED_FACE ( 'NONE', ( #3 ), #37, .T. ) ;
#224 = EDGE_LOOP ( 'NONE', ( #235, #234, #239, #210 ) ) ;
#225 = EDGE_LOOP ( 'NONE', ( #227, #217, #216 ) ) ;
#226 = EDGE_LOOP ( 'NONE', ( #219, #204 ) ) ;
#227 = ORIENTED_EDGE ( 'NONE', *, *, #196, .T. ) ;
#228 = EDGE_CURVE ( 'NONE', #182, #197, #10, .T. ) ;
#229 = EDGE_CURVE ( 'NONE', #199, #195, #13, .T. ) ;
#230 = ORIENTED_EDGE ( 'NONE', *, *, #203, .F. ) ;
#231 = ORIENTED_EDGE ( 'NONE', *, *, #205, .T. ) ;
#232 = ADVANCED_FACE ( 'NONE', ( #27 ), #50, .T. ) ;
#233 = ORIENTED_EDGE ( 'NONE', *, *, #238, .T. ) ;
#234 = ORIENTED_EDGE ( 'NONE', *, *, #237, .T. ) ;
#235 = ORIENTED_EDGE ( 'NONE', *, *, #264, .F. ) ;
#236 = EDGE_LOOP ( 'NONE', ( #215, #222, #213 ) ) ;
#237 = EDGE_CURVE ( 'NONE', #200, #260, #66, .T. ) ;
#238 = EDGE_CURVE ( 'NONE', #180, #256, #26, .T. ) ;
#239 = ORIENTED_EDGE ( 'NONE', *, *, #220, .T. ) ;
#240 = EDGE_CURVE ( 'NONE', #197, #221, #28, .T. ) ;
#241 = ORIENTED_EDGE ( 'NONE', *, *, #254, .F. ) ;
#242 = ORIENTED_EDGE ( 'NONE', *, *, #229, .F. ) ;
#243 = AXIS2_PLACEMENT_3D ( 'NONE', #247, #246, #245 ) ;
#244 = ADVANCED_FACE ( 'NONE', ( #67 ), #72, .T. ) ;
#245 = DIRECTION ( 'NONE',  ( 1.000000000000000000, 0.0000000000000000000, 0.0000000000000000000 ) ) ;
#246 = DIRECTION ( 'NONE',  ( -0.0000000000000000000, -0.0000000000000000000, 1.000000000000000000 ) ) ;
#247 = CARTESIAN_POINT ( 'NONE',  ( 0.0000000000000000000, 0.0000000000000000000, 0.7180451101900537900 ) ) ;
#248 = ORIENTED_EDGE ( 'NONE', *, *, #264, .T. ) ;
#249 = EDGE_LOOP ( 'NONE', ( #241, #251, #253, #252 ) ) ;
#250 = CLOSED_SHELL ( 'NONE', ( #186, #189, #274, #212, #223, #214, #211, #232, #244 ) ) ;
#251 = ORIENTED_EDGE ( 'NONE', *, *, #228, .F. ) ;
#252 = ORIENTED_EDGE ( 'NONE', *, *, #229, .T. ) ;
#253 = ORIENTED_EDGE ( 'NONE', *, *, #188, .T. ) ;
#254 = EDGE_CURVE ( 'NONE', #197, #195, #55, .T. ) ;
#255 = EDGE_LOOP ( 'NONE', ( #179, #206, #184, #202 ) ) ;
#256 = VERTEX_POINT ( 'NONE', #91 ) ;
#257 = CYLINDRICAL_SURFACE ( 'NONE', #261, 12.69999999999999900 ) ;
#258 = DIRECTION ( 'NONE',  ( -0.0000000000000000000, -0.0000000000000000000, 1.000000000000000000 ) ) ;
#259 = CARTESIAN_POINT ( 'NONE',  ( 0.0000000000000000000, 0.0000000000000000000, 16.01355499976209300 ) ) ;
#260 = VERTEX_POINT ( 'NONE', #90 ) ;
#261 = AXIS2_PLACEMENT_3D ( 'NONE', #259, #258, #190 ) ;
#262 = ORIENTED_EDGE ( 'NONE', *, *, #185, .T. ) ;
#263 = EDGE_LOOP ( 'NONE', ( #201, #183, #192, #187 ) ) ;
#264 = EDGE_CURVE ( 'NONE', #200, #180, #71, .T. ) ;
#265 = CARTESIAN_POINT ( 'NONE',  ( 0.0000000000000000000, 0.0000000000000000000, 0.5766237539527423500 ) ) ;
#266 = FACE_OUTER_BOUND ( 'NONE', #263, .T. ) ;
#267 = CONICAL_SURFACE ( 'NONE', #272, 12.69999999999999900, 0.7853981633974360700 ) ;
#268 = CIRCLE ( 'NONE', #288, 12.69999999999999900 ) ;
#269 = CARTESIAN_POINT ( 'NONE',  ( 0.0000000000000000000, 0.0000000000000000000, -1.295000000000001000 ) ) ;
#270 = DIRECTION ( 'NONE',  ( -1.000000000000000000, 0.0000000000000000000, 0.0000000000000000000 ) ) ;
#271 = CIRCLE ( 'NONE', #284, 12.55857864376269000 ) ;
#272 = AXIS2_PLACEMENT_3D ( 'NONE', #265, #273, #270 ) ;
#273 = DIRECTION ( 'NONE',  ( 0.0000000000000000000, 0.0000000000000000000, -1.000000000000000000 ) ) ;
#274 = ADVANCED_FACE ( 'NONE', ( #82 ), #80, .T. ) ;
#275 = CARTESIAN_POINT ( 'NONE',  ( -12.69999999999999900, 1.555301434917138400E-015, -1.153578643762691400 ) ) ;
#276 = CIRCLE ( 'NONE', #281, 12.69999999999999900 ) ;
#277 = CARTESIAN_POINT ( 'NONE',  ( -12.55857864376272000, 1.537982313792432400E-015, 0.7180451101900529000 ) ) ;
#278 = DIRECTION ( 'NONE',  ( 1.000000000000000000, 0.0000000000000000000, 0.0000000000000000000 ) ) ;
#279 = DIRECTION ( 'NONE',  ( -0.0000000000000000000, -0.0000000000000000000, 1.000000000000000000 ) ) ;
#280 = CARTESIAN_POINT ( 'NONE',  ( 0.0000000000000000000, 0.0000000000000000000, -1.153578643762691400 ) ) ;
#281 = AXIS2_PLACEMENT_3D ( 'NONE', #280, #279, #278 ) ;
#282 = DIRECTION ( 'NONE',  ( 1.000000000000000000, 0.0000000000000000000, 0.0000000000000000000 ) ) ;
#283 = DIRECTION ( 'NONE',  ( -0.0000000000000000000, -0.0000000000000000000, 1.000000000000000000 ) ) ;
#284 = AXIS2_PLACEMENT_3D ( 'NONE', #269, #283, #282 ) ;
#285 = DIRECTION ( 'NONE',  ( 1.000000000000000000, 0.0000000000000000000, 0.0000000000000000000 ) ) ;
#286 = DIRECTION ( 'NONE',  ( -0.0000000000000000000, -0.0000000000000000000, 1.000000000000000000 ) ) ;
#287 = CARTESIAN_POINT ( 'NONE',  ( 0.0000000000000000000, 0.0000000000000000000, 0.5766237539527423500 ) ) ;
#288 = AXIS2_PLACEMENT_3D ( 'NONE', #287, #286, #285 ) ;
#289 = CARTESIAN_POINT ( 'NONE',  ( -12.69999999999999900, 0.0000000000000000000, 0.5766237539527423500 ) ) ;
#290 = CIRCLE ( 'NONE', #243, 12.55857864376269200 ) ;
#291 = DIRECTION ( 'NONE',  ( -0.7071067811865388000, 0.0000000000000000000, -0.7071067811865561200 ) ) ;
#292 = VECTOR ( 'NONE', #291, 1000.000000000000100 ) ;
#293 = FACE_OUTER_BOUND ( 'NONE', #255, .T. ) ;
#294 = CARTESIAN_POINT ( 'NONE',  ( 12.69999999999999900, 0.0000000000000000000, 0.5766237539527423500 ) ) ;
#295 = LINE ( 'NONE', #289, #292 ) ;
#296 = VECTOR ( 'NONE', #198, 1000.000000000000000 ) ;
#297 = CARTESIAN_POINT ( 'NONE',  ( -12.69999999999999900, 1.555301434917138400E-015, 16.01355499976209300 ) ) ;
#298 = LINE ( 'NONE', #297, #296 ) ;
#299 = CARTESIAN_POINT ( 'NONE',  ( -12.55857864376269000, 1.546641874354783400E-015, -1.295000000000001000 ) ) ;
#300 = CARTESIAN_POINT ( 'NONE',  ( 12.55857864376272000, 0.0000000000000000000, 0.7180451101900529000 ) ) ;
#301 = CARTESIAN_POINT ( 'NONE',  ( -12.69999999999999900, 1.555301434917138400E-015, 0.5766237539527423500 ) ) ;
ENDSEC;
END-ISO-10303-21;
