ISO-10303-21;
HEADER;
FILE_DESCRIPTION (( 'STEP AP214' ),
    '1' );
FILE_NAME ('20096.step',
    '2022-07-08T19:02:48',
    ( '' ),
    ( '' ),
    'SwSTEP 2.0',
    'SolidWorks 2021',
    '' );
FILE_SCHEMA (( 'AUTOMOTIVE_DESIGN' ));
ENDSEC;

DATA;
#1 = PLANE ( 'NONE',  #159 ) ;
#2 = CONTEXT_DEPENDENT_SHAPE_REPRESENTATION ( #85, #245 ) ;
#3 = DIRECTION ( 'NONE',  ( 0.000000000000000000, 0.000000000000000000, -1.000000000000000000 ) ) ;
#4 = ORIENTED_EDGE ( 'NONE', *, *, #173, .F. ) ;
#5 = MECHANICAL_DESIGN_GEOMETRIC_PRESENTATION_REPRESENTATION (  '', ( #64 ), #105 ) ;
#6 = FILL_AREA_STYLE ('',( #184 ) ) ;
#7 = PRODUCT_CONTEXT ( 'NONE', #169, 'mechanical' ) ;
#8 =( LENGTH_UNIT ( ) NAMED_UNIT ( * ) SI_UNIT ( .MILLI., .METRE. ) );
#9 = UNCERTAINTY_MEASURE_WITH_UNIT (LENGTH_MEASURE( 1.000000000000000082E-05 ), #97, 'distance_accuracy_value', 'NONE');
#10 = AXIS2_PLACEMENT_3D ( 'NONE', #163, #162, #246 ) ;
#11 = FACE_OUTER_BOUND ( 'NONE', #48, .T. ) ;
#12 = PRESENTATION_LAYER_ASSIGNMENT (  '', '', ( #146 ) ) ;
#13 = PRODUCT_RELATED_PRODUCT_CATEGORY ( 'part', '', ( #133 ) ) ;
#14 = EDGE_LOOP ( 'NONE', ( #210, #242, #240, #208 ) ) ;
#15 = FACE_OUTER_BOUND ( 'NONE', #14, .T. ) ;
#16 =( LENGTH_UNIT ( ) NAMED_UNIT ( * ) SI_UNIT ( .MILLI., .METRE. ) );
#17 = CARTESIAN_POINT ( 'NONE',  ( 25.00000000000000000, 0.000000000000000000, -25.00000000000000000 ) ) ;
#18 = AXIS2_PLACEMENT_3D ( 'NONE', #72, #92, #90 ) ;
#19 = FILL_AREA_STYLE ('',( #177 ) ) ;
#20 = PRODUCT_DEFINITION_FORMATION_WITH_SPECIFIED_SOURCE ( 'ANY', '', #88, .NOT_KNOWN. ) ;
#21 = SURFACE_STYLE_FILL_AREA ( #19 ) ;
#22 = PRODUCT_DEFINITION_CONTEXT ( 'detailed design', #209, 'design' ) ;
#23 = LINE ( 'NONE', #42, #93 ) ;
#24 = VERTEX_POINT ( 'NONE', #89 ) ;
#25 = DIRECTION ( 'NONE',  ( 0.000000000000000000, 0.000000000000000000, 1.000000000000000000 ) ) ;
#26 = ITEM_DEFINED_TRANSFORMATION ( 'NONE', 'NONE', #224,  #83 ) ;
#27 = SHAPE_DEFINITION_REPRESENTATION ( #179, #46 ) ;
#28 = DIRECTION ( 'NONE',  ( 0.000000000000000000, 0.000000000000000000, 1.000000000000000000 ) ) ;
#29 = APPLICATION_PROTOCOL_DEFINITION ( 'draft international standard', 'automotive_design', 1998, #226 ) ;
#30 = CARTESIAN_POINT ( 'NONE',  ( 0.000000000000000000, 0.000000000000000000, 0.000000000000000000 ) ) ;
#31 = PRODUCT_DEFINITION ( 'UNKNOWN', '', #36, #230 ) ;
#32 = UNCERTAINTY_MEASURE_WITH_UNIT (LENGTH_MEASURE( 1.000000000000000082E-05 ), #141, 'distance_accuracy_value', 'NONE');
#33 = EDGE_LOOP ( 'NONE', ( #145, #70, #122 ) ) ;
#34 = VECTOR ( 'NONE', #74, 1000.000000000000000 ) ;
#35 = DIRECTION ( 'NONE',  ( 0.000000000000000000, -0.000000000000000000, 1.000000000000000000 ) ) ;
#36 = PRODUCT_DEFINITION_FORMATION_WITH_SPECIFIED_SOURCE ( 'ANY', '', #79, .NOT_KNOWN. ) ;
#37 = LINE ( 'NONE', #193, #91 ) ;
#38 = APPLICATION_CONTEXT ( 'automotive_design' ) ;
#39 =( NAMED_UNIT ( * ) PLANE_ANGLE_UNIT ( ) SI_UNIT ( $, .RADIAN. ) );
#40 = DIRECTION ( 'NONE',  ( -0.000000000000000000, 1.000000000000000000, 0.000000000000000000 ) ) ;
#41 = EDGE_CURVE ( 'NONE', #158, #24, #248, .T. ) ;
#42 = CARTESIAN_POINT ( 'NONE',  ( 0.000000000000000000, 0.000000000000000000, -25.00000000000000000 ) ) ;
#43 = CARTESIAN_POINT ( 'NONE',  ( -25.00000000000000355, 3.157196726277788912E-13, 4.163336342344445889E-15 ) ) ;
#44 = DIRECTION ( 'NONE',  ( 0.000000000000000000, 0.000000000000000000, 1.000000000000000000 ) ) ;
#45 = DIRECTION ( 'NONE',  ( 1.000000000000000000, 0.000000000000000000, -0.000000000000000000 ) ) ;
#46 = SHAPE_REPRESENTATION ( '32549', ( #83 ), #55 ) ;
#47 = CARTESIAN_POINT ( 'NONE',  ( 0.000000000000000000, 24.99999999999968736, 0.000000000000000000 ) ) ;
#48 = EDGE_LOOP ( 'NONE', ( #161, #117, #4, #71 ) ) ;
#49 = ORIENTED_EDGE ( 'NONE', *, *, #219, .F. ) ;
#50 = PRODUCT_DEFINITION_SHAPE ( 'NONE', 'NONE',  #199 ) ;
#51 =( NAMED_UNIT ( * ) SI_UNIT ( $, .STERADIAN. ) SOLID_ANGLE_UNIT ( ) );
#52 = DIRECTION ( 'NONE',  ( -1.000000000000000000, -0.000000000000000000, -0.000000000000000000 ) ) ;
#53 = VERTEX_POINT ( 'NONE', #30 ) ;
#54 = VERTEX_POINT ( 'NONE', #186 ) ;
#55 =( GEOMETRIC_REPRESENTATION_CONTEXT ( 3 ) GLOBAL_UNCERTAINTY_ASSIGNED_CONTEXT ( ( #206 ) ) GLOBAL_UNIT_ASSIGNED_CONTEXT ( ( #237, #94, #200 ) ) REPRESENTATION_CONTEXT ( 'NONE', 'WORKASPACE' ) );
#56 = FACE_OUTER_BOUND ( 'NONE', #167, .T. ) ;
#57 = PLANE ( 'NONE',  #110 ) ;
#58 = PRODUCT_RELATED_PRODUCT_CATEGORY ( 'part', '', ( #185 ) ) ;
#59 = SHAPE_DEFINITION_REPRESENTATION ( #50, #112 ) ;
#60 = PRODUCT_DEFINITION_SHAPE ( 'NONE', 'NONE',  #31 ) ;
#61 = CARTESIAN_POINT ( 'NONE',  ( 0.000000000000000000, 0.000000000000000000, 0.000000000000000000 ) ) ;
#62 = SURFACE_STYLE_USAGE ( .BOTH. , #156 ) ;
#63 = ITEM_DEFINED_TRANSFORMATION ( 'NONE', 'NONE', #115,  #247 ) ;
#64 = STYLED_ITEM ( 'NONE', ( #243 ), #192 ) ;
#65 = ADVANCED_FACE ( 'NONE', ( #11 ), #129, .F. ) ;
#66 = PRESENTATION_STYLE_ASSIGNMENT (( #62 ) ) ;
#67 = DIRECTION ( 'NONE',  ( -0.000000000000000000, 0.000000000000000000, -1.000000000000000000 ) ) ;
#68 = DIRECTION ( 'NONE',  ( 1.000000000000000000, 0.000000000000000000, 0.000000000000000000 ) ) ;
#69 = LINE ( 'NONE', #82, #150 ) ;
#70 = ORIENTED_EDGE ( 'NONE', *, *, #173, .T. ) ;
#71 = ORIENTED_EDGE ( 'NONE', *, *, #107, .T. ) ;
#72 = CARTESIAN_POINT ( 'NONE',  ( 25.00000000000000000, 24.99999999999968736, 0.000000000000000000 ) ) ;
#73 = APPLICATION_PROTOCOL_DEFINITION ( 'draft international standard', 'automotive_design', 1998, #125 ) ;
#74 = DIRECTION ( 'NONE',  ( -1.000000000000000000, -0.000000000000000000, -0.000000000000000000 ) ) ;
#75 = APPLICATION_PROTOCOL_DEFINITION ( 'draft international standard', 'automotive_design', 1998, #134 ) ;
#76 = AXIS2_PLACEMENT_3D ( 'NONE', #225, #99, #67 ) ;
#77 = DIRECTION ( 'NONE',  ( 0.000000000000000000, 0.7071067811865431318, 0.7071067811865520136 ) ) ;
#78 = DIRECTION ( 'NONE',  ( -0.000000000000000000, 0.000000000000000000, -1.000000000000000000 ) ) ;
#79 = PRODUCT ( 'NOA61_NOA61orEquiv', 'NOA61_NOA61orEquiv', '', ( #7 ) ) ;
#80 = LINE ( 'NONE', #254, #231 ) ;
#81 = PRODUCT_RELATED_PRODUCT_CATEGORY ( 'part', '', ( #79 ) ) ;
#82 = CARTESIAN_POINT ( 'NONE',  ( 25.00000000000000000, 0.000000000000000000, -25.00000000000000000 ) ) ;
#83 = AXIS2_PLACEMENT_3D ( 'NONE', #114, #44, #157 ) ;
#84 =( NAMED_UNIT ( * ) SI_UNIT ( $, .STERADIAN. ) SOLID_ANGLE_UNIT ( ) );
#85 =( REPRESENTATION_RELATIONSHIP ('NONE','NONE', #112, #46 ) REPRESENTATION_RELATIONSHIP_WITH_TRANSFORMATION ( #26 )SHAPE_REPRESENTATION_RELATIONSHIP( ) );
#86 =( GEOMETRIC_REPRESENTATION_CONTEXT ( 3 ) GLOBAL_UNCERTAINTY_ASSIGNED_CONTEXT ( ( #166 ) ) GLOBAL_UNIT_ASSIGNED_CONTEXT ( ( #16, #39, #253 ) ) REPRESENTATION_CONTEXT ( 'NONE', 'WORKASPACE' ) );
#87 = VERTEX_POINT ( 'NONE', #108 ) ;
#88 = PRODUCT ( '20096', '20096', '', ( #148 ) ) ;
#89 = CARTESIAN_POINT ( 'NONE',  ( 0.000000000000000000, 0.000000000000000000, -25.00000000000000000 ) ) ;
#90 = DIRECTION ( 'NONE',  ( -1.000000000000000000, 0.000000000000000000, -0.000000000000000000 ) ) ;
#91 = VECTOR ( 'NONE', #109, 1000.000000000000000 ) ;
#92 = DIRECTION ( 'NONE',  ( 0.000000000000000000, 0.000000000000000000, -1.000000000000000000 ) ) ;
#93 = VECTOR ( 'NONE', #154, 1000.000000000000000 ) ;
#94 =( NAMED_UNIT ( * ) PLANE_ANGLE_UNIT ( ) SI_UNIT ( $, .RADIAN. ) );
#95 = AXIS2_PLACEMENT_3D ( 'NONE', #207, #28, #218 ) ;
#96 = PRODUCT_RELATED_PRODUCT_CATEGORY ( 'part', '', ( #88 ) ) ;
#97 =( LENGTH_UNIT ( ) NAMED_UNIT ( * ) SI_UNIT ( .MILLI., .METRE. ) );
#98 = CARTESIAN_POINT ( 'NONE',  ( 0.000000000000000000, 0.000000000000000000, 0.000000000000000000 ) ) ;
#99 = DIRECTION ( 'NONE',  ( 1.000000000000000000, 0.000000000000000000, -0.000000000000000000 ) ) ;
#100 = CONTEXT_DEPENDENT_SHAPE_REPRESENTATION ( #211, #189 ) ;
#101 = DIRECTION ( 'NONE',  ( 0.000000000000000000, -1.000000000000000000, 0.000000000000000000 ) ) ;
#102 = APPLICATION_PROTOCOL_DEFINITION ( 'draft international standard', 'automotive_design', 1998, #38 ) ;
#103 = ORIENTED_EDGE ( 'NONE', *, *, #251, .T. ) ;
#104 = EDGE_LOOP ( 'NONE', ( #228, #49, #188 ) ) ;
#105 =( GEOMETRIC_REPRESENTATION_CONTEXT ( 3 ) GLOBAL_UNCERTAINTY_ASSIGNED_CONTEXT ( ( #140 ) ) GLOBAL_UNIT_ASSIGNED_CONTEXT ( ( #8, #119, #84 ) ) REPRESENTATION_CONTEXT ( 'NONE', 'WORKASPACE' ) );
#106 = ADVANCED_FACE ( 'NONE', ( #56 ), #57, .F. ) ;
#107 = EDGE_CURVE ( 'NONE', #124, #54, #37, .T. ) ;
#108 = CARTESIAN_POINT ( 'NONE',  ( 25.00000000000000000, 0.000000000000000000, 0.000000000000000000 ) ) ;
#109 = DIRECTION ( 'NONE',  ( -1.000000000000000000, -0.000000000000000000, -0.000000000000000000 ) ) ;
#110 = AXIS2_PLACEMENT_3D ( 'NONE', #17, #191, #149 ) ;
#111 = CARTESIAN_POINT ( 'NONE',  ( 0.000000000000000000, 0.000000000000000000, 0.000000000000000000 ) ) ;
#112 = SHAPE_REPRESENTATION ( '47009', ( #247, #10, #224 ), #190 ) ;
#113 = COLOUR_RGB ( '',0.7529411764705882248, 0.7529411764705882248, 0.7529411764705882248 ) ;
#114 = CARTESIAN_POINT ( 'NONE',  ( 0.000000000000000000, 0.000000000000000000, 0.000000000000000000 ) ) ;
#115 = AXIS2_PLACEMENT_3D ( 'NONE', #43, #239, #175 ) ;
#116 = PRODUCT_DEFINITION_SHAPE ( 'NONE', 'NONE',  #128 ) ;
#117 = ORIENTED_EDGE ( 'NONE', *, *, #151, .F. ) ;
#118 = PRODUCT_DEFINITION_CONTEXT ( 'detailed design', #176, 'design' ) ;
#119 =( NAMED_UNIT ( * ) PLANE_ANGLE_UNIT ( ) SI_UNIT ( $, .RADIAN. ) );
#120 = PRODUCT_CONTEXT ( 'NONE', #38, 'mechanical' ) ;
#121 = SURFACE_STYLE_FILL_AREA ( #6 ) ;
#122 = ORIENTED_EDGE ( 'NONE', *, *, #142, .T. ) ;
#123 = VECTOR ( 'NONE', #222, 1000.000000000000000 ) ;
#124 = VERTEX_POINT ( 'NONE', #215 ) ;
#125 = APPLICATION_CONTEXT ( 'automotive_design' ) ;
#126 = PRODUCT_DEFINITION_CONTEXT ( 'detailed design', #134, 'design' ) ;
#127 = ORIENTED_EDGE ( 'NONE', *, *, #41, .T. ) ;
#128 = PRODUCT_DEFINITION ( 'UNKNOWN', '', #20, #126 ) ;
#129 = PLANE ( 'NONE',  #18 ) ;
#130 = SHAPE_REPRESENTATION ( '20096', ( #165, #115 ), #86 ) ;
#131 = CARTESIAN_POINT ( 'NONE',  ( 25.00000000000000000, 0.000000000000000000, 0.000000000000000000 ) ) ;
#132 = APPLICATION_PROTOCOL_DEFINITION ( 'draft international standard', 'automotive_design', 1998, #169 ) ;
#133 = PRODUCT ( '32549', '32549', '', ( #120 ) ) ;
#134 = APPLICATION_CONTEXT ( 'automotive_design' ) ;
#135 = ADVANCED_BREP_SHAPE_REPRESENTATION ( '', ( #192, #83 ), #55 ) ;
#136 = VECTOR ( 'NONE', #3, 1000.000000000000000 ) ;
#137 = FACE_OUTER_BOUND ( 'NONE', #33, .T. ) ;
#138 = PLANE ( 'NONE',  #76 ) ;
#139 = PRODUCT_DEFINITION_FORMATION_WITH_SPECIFIED_SOURCE ( 'ANY', '', #133, .NOT_KNOWN. ) ;
#140 = UNCERTAINTY_MEASURE_WITH_UNIT (LENGTH_MEASURE( 1.000000000000000082E-05 ), #8, 'distance_accuracy_value', 'NONE');
#141 =( LENGTH_UNIT ( ) NAMED_UNIT ( * ) SI_UNIT ( .MILLI., .METRE. ) );
#142 = EDGE_CURVE ( 'NONE', #87, #158, #171, .T. ) ;
#143 = ORIENTED_EDGE ( 'NONE', *, *, #107, .F. ) ;
#144 = PRODUCT_DEFINITION_SHAPE ( 'NONE', 'NONE',  #256 ) ;
#145 = ORIENTED_EDGE ( 'NONE', *, *, #195, .T. ) ;
#146 = STYLED_ITEM ( 'NONE', ( #66 ), #135 ) ;
#147 = PLANE ( 'NONE',  #187 ) ;
#148 = PRODUCT_CONTEXT ( 'NONE', #125, 'mechanical' ) ;
#149 = DIRECTION ( 'NONE',  ( 0.000000000000000000, -0.7071067811865431318, -0.7071067811865520136 ) ) ;
#150 = VECTOR ( 'NONE', #77, 1000.000000000000000 ) ;
#151 = EDGE_CURVE ( 'NONE', #87, #53, #235, .T. ) ;
#152 = ADVANCED_FACE ( 'NONE', ( #15 ), #147, .F. ) ;
#153 =( GEOMETRIC_REPRESENTATION_CONTEXT ( 3 ) GLOBAL_UNCERTAINTY_ASSIGNED_CONTEXT ( ( #9 ) ) GLOBAL_UNIT_ASSIGNED_CONTEXT ( ( #97, #198, #216 ) ) REPRESENTATION_CONTEXT ( 'NONE', 'WORKASPACE' ) );
#154 = DIRECTION ( 'NONE',  ( 0.000000000000000000, 0.7071067811865431318, 0.7071067811865520136 ) ) ;
#155 = CLOSED_SHELL ( 'NONE', ( #106, #65, #152, #178, #249 ) ) ;
#156 = SURFACE_SIDE_STYLE ('',( #21 ) ) ;
#157 = DIRECTION ( 'NONE',  ( 1.000000000000000000, 0.000000000000000000, 0.000000000000000000 ) ) ;
#158 = VERTEX_POINT ( 'NONE', #232 ) ;
#159 = AXIS2_PLACEMENT_3D ( 'NONE', #47, #45, #78 ) ;
#160 = LINE ( 'NONE', #61, #136 ) ;
#161 = ORIENTED_EDGE ( 'NONE', *, *, #202, .T. ) ;
#162 = DIRECTION ( 'NONE',  ( 9.675872040601472926E-31, -6.162975822038804405E-33, 1.000000000000000000 ) ) ;
#163 = CARTESIAN_POINT ( 'NONE',  ( 0.000000000000000000, 0.000000000000000000, 0.000000000000000000 ) ) ;
#164 = CONTEXT_DEPENDENT_SHAPE_REPRESENTATION ( #196, #144 ) ;
#165 = AXIS2_PLACEMENT_3D ( 'NONE', #111, #170, #172 ) ;
#166 = UNCERTAINTY_MEASURE_WITH_UNIT (LENGTH_MEASURE( 1.000000000000000082E-05 ), #16, 'distance_accuracy_value', 'NONE');
#167 = EDGE_LOOP ( 'NONE', ( #103, #143, #229, #127 ) ) ;
#168 = CARTESIAN_POINT ( 'NONE',  ( 25.00000000000000000, 0.000000000000000000, 0.000000000000000000 ) ) ;
#169 = APPLICATION_CONTEXT ( 'automotive_design' ) ;
#170 = DIRECTION ( 'NONE',  ( 0.000000000000000000, 0.000000000000000000, 1.000000000000000000 ) ) ;
#171 = LINE ( 'NONE', #252, #123 ) ;
#172 = DIRECTION ( 'NONE',  ( 1.000000000000000000, 0.000000000000000000, 0.000000000000000000 ) ) ;
#173 = EDGE_CURVE ( 'NONE', #124, #87, #213, .T. ) ;
#174 = VECTOR ( 'NONE', #101, 1000.000000000000000 ) ;
#175 = DIRECTION ( 'NONE',  ( -5.551115123125703816E-17, -1.110223024625156540E-16, 1.000000000000000000 ) ) ;
#176 = APPLICATION_CONTEXT ( 'automotive_design' ) ;
#177 = FILL_AREA_STYLE_COLOUR ( '', #113 ) ;
#178 = ADVANCED_FACE ( 'NONE', ( #137 ), #138, .T. ) ;
#179 = PRODUCT_DEFINITION_SHAPE ( 'NONE', 'NONE',  #238 ) ;
#180 = CARTESIAN_POINT ( 'NONE',  ( 24.99999999999998579, 24.99999999999999645, -24.99999999999968736 ) ) ;
#181 = ITEM_DEFINED_TRANSFORMATION ( 'NONE', 'NONE', #10,  #83 ) ;
#182 = DIRECTION ( 'NONE',  ( -1.000000000000000000, -1.734723475976800192E-16, -5.551115123125878845E-17 ) ) ;
#183 = APPLICATION_CONTEXT ( 'automotive_design' ) ;
#184 = FILL_AREA_STYLE_COLOUR ( '', #220 ) ;
#185 = PRODUCT ( '47009', '47009', '', ( #214 ) ) ;
#186 = CARTESIAN_POINT ( 'NONE',  ( 0.000000000000000000, 24.99999999999968736, 0.000000000000000000 ) ) ;
#187 = AXIS2_PLACEMENT_3D ( 'NONE', #131, #40, #35 ) ;
#188 = ORIENTED_EDGE ( 'NONE', *, *, #202, .F. ) ;
#189 = PRODUCT_DEFINITION_SHAPE ( 'NONE', 'NONE',  #255 ) ;
#190 =( GEOMETRIC_REPRESENTATION_CONTEXT ( 3 ) GLOBAL_UNCERTAINTY_ASSIGNED_CONTEXT ( ( #32 ) ) GLOBAL_UNIT_ASSIGNED_CONTEXT ( ( #141, #244, #51 ) ) REPRESENTATION_CONTEXT ( 'NONE', 'WORKASPACE' ) );
#191 = DIRECTION ( 'NONE',  ( 0.000000000000000000, -0.7071067811865520136, 0.7071067811865431318 ) ) ;
#192 = MANIFOLD_SOLID_BREP ( 'Boss-Extrude1', #155 ) ;
#193 = CARTESIAN_POINT ( 'NONE',  ( 25.00000000000000000, 24.99999999999968736, 0.000000000000000000 ) ) ;
#194 = APPLICATION_PROTOCOL_DEFINITION ( 'draft international standard', 'automotive_design', 1998, #176 ) ;
#195 = EDGE_CURVE ( 'NONE', #158, #124, #69, .T. ) ;
#196 =( REPRESENTATION_RELATIONSHIP ('NONE','NONE', #112, #46 ) REPRESENTATION_RELATIONSHIP_WITH_TRANSFORMATION ( #181 )SHAPE_REPRESENTATION_RELATIONSHIP( ) );
#197 = PRESENTATION_LAYER_ASSIGNMENT (  '', '', ( #64 ) ) ;
#198 =( NAMED_UNIT ( * ) PLANE_ANGLE_UNIT ( ) SI_UNIT ( $, .RADIAN. ) );
#199 = PRODUCT_DEFINITION ( 'UNKNOWN', '', #212, #118 ) ;
#200 =( NAMED_UNIT ( * ) SI_UNIT ( $, .STERADIAN. ) SOLID_ANGLE_UNIT ( ) );
#201 = APPLICATION_PROTOCOL_DEFINITION ( 'draft international standard', 'automotive_design', 1998, #209 ) ;
#202 = EDGE_CURVE ( 'NONE', #54, #53, #80, .T. ) ;
#203 = SURFACE_STYLE_USAGE ( .BOTH. , #205 ) ;
#204 = DIRECTION ( 'NONE',  ( -4.857225732735130122E-17, 1.000000000000000000, 1.255939796607208336E-14 ) ) ;
#205 = SURFACE_SIDE_STYLE ('',( #121 ) ) ;
#206 = UNCERTAINTY_MEASURE_WITH_UNIT (LENGTH_MEASURE( 1.000000000000000082E-05 ), #237, 'distance_accuracy_value', 'NONE');
#207 = CARTESIAN_POINT ( 'NONE',  ( 0.000000000000000000, 0.000000000000000000, 0.000000000000000000 ) ) ;
#208 = ORIENTED_EDGE ( 'NONE', *, *, #151, .T. ) ;
#209 = APPLICATION_CONTEXT ( 'automotive_design' ) ;
#210 = ORIENTED_EDGE ( 'NONE', *, *, #219, .T. ) ;
#211 =( REPRESENTATION_RELATIONSHIP ('NONE','NONE', #130, #112 ) REPRESENTATION_RELATIONSHIP_WITH_TRANSFORMATION ( #63 )SHAPE_REPRESENTATION_RELATIONSHIP( ) );
#212 = PRODUCT_DEFINITION_FORMATION_WITH_SPECIFIED_SOURCE ( 'ANY', '', #185, .NOT_KNOWN. ) ;
#213 = LINE ( 'NONE', #223, #174 ) ;
#214 = PRODUCT_CONTEXT ( 'NONE', #183, 'mechanical' ) ;
#215 = CARTESIAN_POINT ( 'NONE',  ( 25.00000000000000000, 24.99999999999968736, 0.000000000000000000 ) ) ;
#216 =( NAMED_UNIT ( * ) SI_UNIT ( $, .STERADIAN. ) SOLID_ANGLE_UNIT ( ) );
#217 = APPLICATION_PROTOCOL_DEFINITION ( 'draft international standard', 'automotive_design', 1998, #183 ) ;
#218 = DIRECTION ( 'NONE',  ( 1.000000000000000000, 0.000000000000000000, 0.000000000000000000 ) ) ;
#219 = EDGE_CURVE ( 'NONE', #53, #24, #160, .T. ) ;
#220 = COLOUR_RGB ( '',0.7529411764705882248, 0.7529411764705882248, 0.7529411764705882248 ) ;
#221 = DIRECTION ( 'NONE',  ( 0.000000000000000000, -1.000000000000000000, 0.000000000000000000 ) ) ;
#222 = DIRECTION ( 'NONE',  ( 0.000000000000000000, 0.000000000000000000, -1.000000000000000000 ) ) ;
#223 = CARTESIAN_POINT ( 'NONE',  ( 25.00000000000000000, 24.99999999999968736, 0.000000000000000000 ) ) ;
#224 = AXIS2_PLACEMENT_3D ( 'NONE', #180, #204, #182 ) ;
#225 = CARTESIAN_POINT ( 'NONE',  ( 25.00000000000000000, 24.99999999999968736, 0.000000000000000000 ) ) ;
#226 = APPLICATION_CONTEXT ( 'automotive_design' ) ;
#227 = VECTOR ( 'NONE', #52, 1000.000000000000000 ) ;
#228 = ORIENTED_EDGE ( 'NONE', *, *, #251, .F. ) ;
#229 = ORIENTED_EDGE ( 'NONE', *, *, #195, .F. ) ;
#230 = PRODUCT_DEFINITION_CONTEXT ( 'detailed design', #226, 'design' ) ;
#231 = VECTOR ( 'NONE', #221, 1000.000000000000000 ) ;
#232 = CARTESIAN_POINT ( 'NONE',  ( 25.00000000000000000, 0.000000000000000000, -25.00000000000000000 ) ) ;
#233 = SHAPE_DEFINITION_REPRESENTATION ( #116, #130 ) ;
#234 = MECHANICAL_DESIGN_GEOMETRIC_PRESENTATION_REPRESENTATION (  '', ( #146 ), #153 ) ;
#235 = LINE ( 'NONE', #168, #34 ) ;
#236 = SHAPE_REPRESENTATION_RELATIONSHIP ( 'NONE' , 'NONE' ,  #46, #135 ) ;
#237 =( LENGTH_UNIT ( ) NAMED_UNIT ( * ) SI_UNIT ( .MILLI., .METRE. ) );
#238 = PRODUCT_DEFINITION ( 'UNKNOWN', '', #139, #22 ) ;
#239 = DIRECTION ( 'NONE',  ( -1.000000000000000000, 1.261490911730334435E-14, -5.551115123125467158E-17 ) ) ;
#240 = ORIENTED_EDGE ( 'NONE', *, *, #142, .F. ) ;
#241 = FACE_OUTER_BOUND ( 'NONE', #104, .T. ) ;
#242 = ORIENTED_EDGE ( 'NONE', *, *, #41, .F. ) ;
#243 = PRESENTATION_STYLE_ASSIGNMENT (( #203 ) ) ;
#244 =( NAMED_UNIT ( * ) PLANE_ANGLE_UNIT ( ) SI_UNIT ( $, .RADIAN. ) );
#245 = PRODUCT_DEFINITION_SHAPE ( 'NONE', 'NONE',  #257 ) ;
#246 = DIRECTION ( 'NONE',  ( 1.000000000000000000, -6.902532920683853297E-31, 9.675872040601472926E-31 ) ) ;
#247 = AXIS2_PLACEMENT_3D ( 'NONE', #98, #25, #68 ) ;
#248 = LINE ( 'NONE', #250, #227 ) ;
#249 = ADVANCED_FACE ( 'NONE', ( #241 ), #1, .F. ) ;
#250 = CARTESIAN_POINT ( 'NONE',  ( 25.00000000000000000, 0.000000000000000000, -25.00000000000000000 ) ) ;
#251 = EDGE_CURVE ( 'NONE', #24, #54, #23, .T. ) ;
#252 = CARTESIAN_POINT ( 'NONE',  ( 25.00000000000000000, 0.000000000000000000, 0.000000000000000000 ) ) ;
#253 =( NAMED_UNIT ( * ) SI_UNIT ( $, .STERADIAN. ) SOLID_ANGLE_UNIT ( ) );
#254 = CARTESIAN_POINT ( 'NONE',  ( 0.000000000000000000, 24.99999999999968736, 0.000000000000000000 ) ) ;
#255 = NEXT_ASSEMBLY_USAGE_OCCURRENCE ( 'NAUO1', ' ', ' ', #128, #199, $ ) ;
#256 = NEXT_ASSEMBLY_USAGE_OCCURRENCE ( 'NAUO2', ' ', ' ', #199, #238, $ ) ;
#257 = NEXT_ASSEMBLY_USAGE_OCCURRENCE ( 'NAUO3', ' ', ' ', #199, #238, $ ) ;
ENDSEC;
END-ISO-10303-21;
