ISO-10303-21;
HEADER;
FILE_DESCRIPTION (( 'STEP AP203' ),
    '1' );
FILE_NAME ('Web Model 38206_32806.step',
    '2018-09-04T19:04:34',
    ( '' ),
    ( '' ),
    'SwSTEP 2.0',
    'SolidWorks 2016',
    '' );
FILE_SCHEMA (( 'CONFIG_CONTROL_DESIGN' ));
ENDSEC;

DATA;
#1 =( NAMED_UNIT ( * ) PLANE_ANGLE_UNIT ( ) SI_UNIT ( $, .RADIAN. ) );
#2 = CC_DESIGN_APPROVAL ( #181, ( #151 ) ) ;
#3 = CARTESIAN_POINT ( 'NONE',  ( -3.000000000000001300, 0.007499999999999999700, -2.999999999999999600 ) ) ;
#4 = VECTOR ( 'NONE', #7, 39.37007874015748100 ) ;
#5 = APPLICATION_CONTEXT ( 'configuration controlled 3d designs of mechanical parts and assemblies' ) ;
#6 = DATE_TIME_ROLE ( 'creation_date' ) ;
#7 = DIRECTION ( 'NONE',  ( -0.0000000000000000000, -1.000000000000000000, -0.0000000000000000000 ) ) ;
#8 = APPROVAL_PERSON_ORGANIZATION ( #58, #12, #27 ) ;
#9 = VECTOR ( 'NONE', #112, 39.37007874015748100 ) ;
#10 = CC_DESIGN_PERSON_AND_ORGANIZATION_ASSIGNMENT ( #186, #210, ( #230 ) ) ;
#11 = PLANE ( 'NONE',  #50 ) ;
#12 = APPROVAL ( #226, 'UNSPECIFIED' ) ;
#13 = CARTESIAN_POINT ( 'NONE',  ( -3.000000000000001300, 0.007499999999999999700, 3.000000000000001300 ) ) ;
#14 = PERSON_AND_ORGANIZATION ( #108, #214 ) ;
#15 = EDGE_CURVE ( 'NONE', #164, #86, #124, .T. ) ;
#16 = VECTOR ( 'NONE', #25, 39.37007874015748100 ) ;
#17 = CC_DESIGN_SECURITY_CLASSIFICATION ( #151, ( #230 ) ) ;
#18 = LOCAL_TIME ( 15, 4, 34.00000000000000000, #133 ) ;
#19 = VERTEX_POINT ( 'NONE', #140 ) ;
#20 = PERSON_AND_ORGANIZATION ( #108, #214 ) ;
#21 = DIMENSIONAL_EXPONENTS ( 1.000000000000000000, 0.0000000000000000000, 0.0000000000000000000, 0.0000000000000000000, 0.0000000000000000000, 0.0000000000000000000, 0.0000000000000000000 ) ;
#22 = ADVANCED_BREP_SHAPE_REPRESENTATION ( 'Web Model 38206_32806', ( #55, #61 ), #156 ) ;
#23 = APPROVAL_ROLE ( '' ) ;
#24 = AXIS2_PLACEMENT_3D ( 'NONE', #26, #196, #190 ) ;
#25 = DIRECTION ( 'NONE',  ( 1.000000000000000000, -0.0000000000000000000, -1.821231995776175700E-016 ) ) ;
#26 = CARTESIAN_POINT ( 'NONE',  ( 0.0000000000000000000, -0.007499999999999999700, 0.0000000000000000000 ) ) ;
#27 = APPROVAL_ROLE ( '' ) ;
#28 = VERTEX_POINT ( 'NONE', #95 ) ;
#29 = CARTESIAN_POINT ( 'NONE',  ( 2.999999999999999100, 0.007499999999999999700, -3.000000000000000400 ) ) ;
#30 = EDGE_CURVE ( 'NONE', #44, #35, #59, .T. ) ;
#31 = DIRECTION ( 'NONE',  ( 0.0000000000000000000, 0.0000000000000000000, 1.000000000000000000 ) ) ;
#32 = VERTEX_POINT ( 'NONE', #178 ) ;
#33 = COORDINATED_UNIVERSAL_TIME_OFFSET ( 5, 0, .BEHIND. ) ;
#34 = ORIENTED_EDGE ( 'NONE', *, *, #15, .F. ) ;
#35 = VERTEX_POINT ( 'NONE', #107 ) ;
#36 = DATE_AND_TIME ( #90, #101 ) ;
#37 = VECTOR ( 'NONE', #163, 39.37007874015748100 ) ;
#38 = ORIENTED_EDGE ( 'NONE', *, *, #137, .T. ) ;
#39 = PRODUCT ( 'Web Model 38206_32806', 'Web Model 38206_32806', '', ( #207 ) ) ;
#40 = CALENDAR_DATE ( 2018, 4, 9 ) ;
#41 =( LENGTH_UNIT ( ) NAMED_UNIT ( * ) SI_UNIT ( $, .METRE. ) );
#42 = APPLICATION_PROTOCOL_DEFINITION ( 'international standard', 'config_control_design', 1994, #142 ) ;
#43 = ADVANCED_FACE ( 'NONE', ( #46 ), #180, .F. ) ;
#44 = VERTEX_POINT ( 'NONE', #113 ) ;
#45 = PLANE ( 'NONE',  #67 ) ;
#46 = FACE_OUTER_BOUND ( 'NONE', #70, .T. ) ;
#47 = CC_DESIGN_APPROVAL ( #12, ( #213 ) ) ;
#48 = CLOSED_SHELL ( 'NONE', ( #179, #106, #141, #162, #114, #43 ) ) ;
#49 = ORIENTED_EDGE ( 'NONE', *, *, #57, .F. ) ;
#50 = AXIS2_PLACEMENT_3D ( 'NONE', #165, #232, #211 ) ;
#51 = FACE_OUTER_BOUND ( 'NONE', #132, .T. ) ;
#52 = VECTOR ( 'NONE', #73, 39.37007874015748100 ) ;
#53 = ORIENTED_EDGE ( 'NONE', *, *, #57, .T. ) ;
#54 = LOCAL_TIME ( 15, 4, 34.00000000000000000, #234 ) ;
#55 = MANIFOLD_SOLID_BREP ( 'Boss-Extrude1', #48 ) ;
#56 = COORDINATED_UNIVERSAL_TIME_OFFSET ( 5, 0, .BEHIND. ) ;
#57 = EDGE_CURVE ( 'NONE', #35, #164, #74, .T. ) ;
#58 = PERSON_AND_ORGANIZATION ( #108, #214 ) ;
#59 = LINE ( 'NONE', #111, #9 ) ;
#60 = DIRECTION ( 'NONE',  ( 0.0000000000000000000, 0.0000000000000000000, -1.000000000000000000 ) ) ;
#61 = AXIS2_PLACEMENT_3D ( 'NONE', #183, #209, #75 ) ;
#62 = ORIENTED_EDGE ( 'NONE', *, *, #197, .F. ) ;
#63 = DIRECTION ( 'NONE',  ( -1.000000000000000000, 0.0000000000000000000, 0.0000000000000000000 ) ) ;
#64 = ORIENTED_EDGE ( 'NONE', *, *, #197, .T. ) ;
#65 = APPROVAL ( #227, 'UNSPECIFIED' ) ;
#66 = FACE_OUTER_BOUND ( 'NONE', #218, .T. ) ;
#67 = AXIS2_PLACEMENT_3D ( 'NONE', #187, #116, #185 ) ;
#68 = DATE_AND_TIME ( #40, #54 ) ;
#69 = PERSON_AND_ORGANIZATION ( #108, #214 ) ;
#70 = EDGE_LOOP ( 'NONE', ( #49, #122, #62, #34 ) ) ;
#71 = EDGE_CURVE ( 'NONE', #28, #86, #91, .T. ) ;
#72 = DESIGN_CONTEXT ( 'detailed design', #5, 'design' ) ;
#73 = DIRECTION ( 'NONE',  ( -0.0000000000000000000, -0.0000000000000000000, 1.000000000000000000 ) ) ;
#74 = LINE ( 'NONE', #131, #240 ) ;
#75 = DIRECTION ( 'NONE',  ( 1.000000000000000000, 0.0000000000000000000, 0.0000000000000000000 ) ) ;
#76 =( NAMED_UNIT ( * ) SI_UNIT ( $, .STERADIAN. ) SOLID_ANGLE_UNIT ( ) );
#77 = CC_DESIGN_PERSON_AND_ORGANIZATION_ASSIGNMENT ( #20, #147, ( #213 ) ) ;
#78 = PERSON_AND_ORGANIZATION_ROLE ( 'design_owner' ) ;
#79 = EDGE_LOOP ( 'NONE', ( #184, #155, #126, #182 ) ) ;
#80 = CARTESIAN_POINT ( 'NONE',  ( 2.999999999999999100, 0.007499999999999999700, 3.000000000000000400 ) ) ;
#81 = DIRECTION ( 'NONE',  ( -1.821231995776175500E-016, 0.0000000000000000000, -1.000000000000000000 ) ) ;
#82 = PRODUCT_RELATED_PRODUCT_CATEGORY ( 'detail', '', ( #39 ) ) ;
#83 = CARTESIAN_POINT ( 'NONE',  ( 2.999999999999999100, -0.007499999999999999700, 3.000000000000000400 ) ) ;
#84 = APPROVAL_DATE_TIME ( #68, #65 ) ;
#85 = EDGE_CURVE ( 'NONE', #28, #19, #238, .T. ) ;
#86 = VERTEX_POINT ( 'NONE', #83 ) ;
#87 = PERSON_AND_ORGANIZATION ( #108, #214 ) ;
#88 = ORIENTED_EDGE ( 'NONE', *, *, #188, .T. ) ;
#89 = EDGE_CURVE ( 'NONE', #19, #222, #177, .T. ) ;
#90 = CALENDAR_DATE ( 2018, 4, 9 ) ;
#91 = LINE ( 'NONE', #149, #161 ) ;
#92 = ORIENTED_EDGE ( 'NONE', *, *, #172, .F. ) ;
#93 = PERSON_AND_ORGANIZATION ( #108, #214 ) ;
#94 = CC_DESIGN_DATE_AND_TIME_ASSIGNMENT ( #153, #6, ( #213 ) ) ;
#95 = CARTESIAN_POINT ( 'NONE',  ( 2.999999999999999100, 0.007499999999999999700, 3.000000000000000400 ) ) ;
#96 = LINE ( 'NONE', #97, #52 ) ;
#97 = CARTESIAN_POINT ( 'NONE',  ( -3.000000000000001300, 0.007499999999999999700, 3.000000000000001300 ) ) ;
#98 = FACE_OUTER_BOUND ( 'NONE', #79, .T. ) ;
#99 = FACE_OUTER_BOUND ( 'NONE', #217, .T. ) ;
#100 = DIRECTION ( 'NONE',  ( -0.0000000000000000000, -1.000000000000000000, -0.0000000000000000000 ) ) ;
#101 = LOCAL_TIME ( 15, 4, 34.00000000000000000, #159 ) ;
#102 = VECTOR ( 'NONE', #193, 39.37007874015748100 ) ;
#103 = CARTESIAN_POINT ( 'NONE',  ( -3.000000000000001300, -0.007499999999999999700, 3.000000000000001300 ) ) ;
#104 = EDGE_CURVE ( 'NONE', #19, #44, #176, .T. ) ;
#105 = FACE_OUTER_BOUND ( 'NONE', #225, .T. ) ;
#106 = ADVANCED_FACE ( 'NONE', ( #51 ), #168, .F. ) ;
#107 = CARTESIAN_POINT ( 'NONE',  ( -3.000000000000001300, -0.007499999999999999700, -2.999999999999999600 ) ) ;
#108 = PERSON ( 'UNSPECIFIED', 'UNSPECIFIED', 'UNSPECIFIED', ('UNSPECIFIED'), ('UNSPECIFIED'), ('UNSPECIFIED') ) ;
#109 = PRODUCT_DEFINITION_SHAPE ( 'NONE', 'NONE',  #213 ) ;
#110 = ORIENTED_EDGE ( 'NONE', *, *, #71, .F. ) ;
#111 = CARTESIAN_POINT ( 'NONE',  ( 2.999999999999999100, -0.007499999999999999700, -3.000000000000000400 ) ) ;
#112 = DIRECTION ( 'NONE',  ( -1.000000000000000000, 0.0000000000000000000, 9.106159978880878600E-017 ) ) ;
#113 = CARTESIAN_POINT ( 'NONE',  ( 2.999999999999999100, -0.007499999999999999700, -3.000000000000000400 ) ) ;
#114 = ADVANCED_FACE ( 'NONE', ( #66 ), #11, .T. ) ;
#115 = DATE_AND_TIME ( #158, #199 ) ;
#116 = DIRECTION ( 'NONE',  ( 1.000000000000000000, -0.0000000000000000000, 0.0000000000000000000 ) ) ;
#117 = ORIENTED_EDGE ( 'NONE', *, *, #104, .F. ) ;
#118 = APPROVAL_ROLE ( '' ) ;
#119 = DIRECTION ( 'NONE',  ( -0.0000000000000000000, -1.000000000000000000, -0.0000000000000000000 ) ) ;
#120 = DIRECTION ( 'NONE',  ( -0.0000000000000000000, -1.000000000000000000, -0.0000000000000000000 ) ) ;
#121 = CALENDAR_DATE ( 2018, 4, 9 ) ;
#122 = ORIENTED_EDGE ( 'NONE', *, *, #30, .F. ) ;
#123 = EDGE_CURVE ( 'NONE', #222, #35, #135, .T. ) ;
#124 = LINE ( 'NONE', #220, #16 ) ;
#125 = CARTESIAN_POINT ( 'NONE',  ( 2.999999999999999100, 0.007499999999999999700, -3.000000000000000400 ) ) ;
#126 = ORIENTED_EDGE ( 'NONE', *, *, #89, .F. ) ;
#127 = APPROVAL_PERSON_ORGANIZATION ( #93, #65, #118 ) ;
#128 = LINE ( 'NONE', #170, #37 ) ;
#129 = ORIENTED_EDGE ( 'NONE', *, *, #123, .T. ) ;
#130 = PERSON_AND_ORGANIZATION_ROLE ( 'creator' ) ;
#131 = CARTESIAN_POINT ( 'NONE',  ( -3.000000000000001300, -0.007499999999999999700, 3.000000000000001300 ) ) ;
#132 = EDGE_LOOP ( 'NONE', ( #231, #110, #92, #38 ) ) ;
#133 = COORDINATED_UNIVERSAL_TIME_OFFSET ( 5, 0, .BEHIND. ) ;
#134 = LINE ( 'NONE', #198, #191 ) ;
#135 = LINE ( 'NONE', #228, #237 ) ;
#136 = VECTOR ( 'NONE', #60, 39.37007874015748100 ) ;
#137 = EDGE_CURVE ( 'NONE', #32, #164, #239, .T. ) ;
#138 = DIRECTION ( 'NONE',  ( 1.000000000000000000, -0.0000000000000000000, -1.821231995776175700E-016 ) ) ;
#139 = PLANE ( 'NONE',  #208 ) ;
#140 = CARTESIAN_POINT ( 'NONE',  ( 2.999999999999999100, 0.007499999999999999700, -3.000000000000000400 ) ) ;
#141 = ADVANCED_FACE ( 'NONE', ( #105 ), #154, .F. ) ;
#142 = APPLICATION_CONTEXT ( 'configuration controlled 3d designs of mechanical parts and assemblies' ) ;
#143 =( CONVERSION_BASED_UNIT ( 'INCH', #224 ) LENGTH_UNIT ( ) NAMED_UNIT ( #21 ) );
#144 = APPROVAL_DATE_TIME ( #221, #181 ) ;
#145 = DIRECTION ( 'NONE',  ( 1.000000000000000000, 0.0000000000000000000, -9.106159978880877400E-017 ) ) ;
#146 = APPROVAL_STATUS ( 'not_yet_approved' ) ;
#147 = PERSON_AND_ORGANIZATION_ROLE ( 'creator' ) ;
#148 = CARTESIAN_POINT ( 'NONE',  ( 2.999999999999999100, 0.007499999999999999700, -3.000000000000000400 ) ) ;
#149 = CARTESIAN_POINT ( 'NONE',  ( 2.999999999999999100, 0.007499999999999999700, 3.000000000000000400 ) ) ;
#150 = DATE_TIME_ROLE ( 'classification_date' ) ;
#151 = SECURITY_CLASSIFICATION ( '', '', #189 ) ;
#152 = DIRECTION ( 'NONE',  ( -1.000000000000000000, 0.0000000000000000000, 1.821231995776175500E-016 ) ) ;
#153 = DATE_AND_TIME ( #157, #18 ) ;
#154 = PLANE ( 'NONE',  #175 ) ;
#155 = ORIENTED_EDGE ( 'NONE', *, *, #123, .F. ) ;
#156 =( GEOMETRIC_REPRESENTATION_CONTEXT ( 3 ) GLOBAL_UNCERTAINTY_ASSIGNED_CONTEXT ( ( #204 ) ) GLOBAL_UNIT_ASSIGNED_CONTEXT ( ( #143, #1, #76 ) ) REPRESENTATION_CONTEXT ( 'NONE', 'WORKASPACE' ) );
#157 = CALENDAR_DATE ( 2018, 4, 9 ) ;
#158 = CALENDAR_DATE ( 2018, 4, 9 ) ;
#159 = COORDINATED_UNIVERSAL_TIME_OFFSET ( 5, 0, .BEHIND. ) ;
#160 = CC_DESIGN_PERSON_AND_ORGANIZATION_ASSIGNMENT ( #14, #130, ( #230 ) ) ;
#161 = VECTOR ( 'NONE', #120, 39.37007874015748100 ) ;
#162 = ADVANCED_FACE ( 'NONE', ( #98 ), #139, .F. ) ;
#163 = DIRECTION ( 'NONE',  ( 0.0000000000000000000, 0.0000000000000000000, -1.000000000000000000 ) ) ;
#164 = VERTEX_POINT ( 'NONE', #103 ) ;
#165 = CARTESIAN_POINT ( 'NONE',  ( 0.0000000000000000000, 0.007499999999999999700, 0.0000000000000000000 ) ) ;
#166 = APPLICATION_PROTOCOL_DEFINITION ( 'international standard', 'config_control_design', 1994, #5 ) ;
#167 = ORIENTED_EDGE ( 'NONE', *, *, #188, .F. ) ;
#168 = PLANE ( 'NONE',  #236 ) ;
#169 = ORIENTED_EDGE ( 'NONE', *, *, #137, .F. ) ;
#170 = CARTESIAN_POINT ( 'NONE',  ( 2.999999999999999100, -0.007499999999999999700, 3.000000000000000400 ) ) ;
#171 = APPROVAL_PERSON_ORGANIZATION ( #223, #181, #23 ) ;
#172 = EDGE_CURVE ( 'NONE', #32, #28, #134, .T. ) ;
#173 = CC_DESIGN_PERSON_AND_ORGANIZATION_ASSIGNMENT ( #87, #212, ( #151 ) ) ;
#174 = ORIENTED_EDGE ( 'NONE', *, *, #172, .T. ) ;
#175 = AXIS2_PLACEMENT_3D ( 'NONE', #233, #63, #31 ) ;
#176 = LINE ( 'NONE', #29, #235 ) ;
#177 = LINE ( 'NONE', #148, #102 ) ;
#178 = CARTESIAN_POINT ( 'NONE',  ( -3.000000000000001300, 0.007499999999999999700, 3.000000000000001300 ) ) ;
#179 = ADVANCED_FACE ( 'NONE', ( #99 ), #45, .F. ) ;
#180 = PLANE ( 'NONE',  #24 ) ;
#181 = APPROVAL ( #146, 'UNSPECIFIED' ) ;
#182 = ORIENTED_EDGE ( 'NONE', *, *, #104, .T. ) ;
#183 = CARTESIAN_POINT ( 'NONE',  ( 0.0000000000000000000, 0.0000000000000000000, 0.0000000000000000000 ) ) ;
#184 = ORIENTED_EDGE ( 'NONE', *, *, #30, .T. ) ;
#185 = DIRECTION ( 'NONE',  ( 0.0000000000000000000, 0.0000000000000000000, -1.000000000000000000 ) ) ;
#186 = PERSON_AND_ORGANIZATION ( #108, #214 ) ;
#187 = CARTESIAN_POINT ( 'NONE',  ( -3.000000000000001300, 0.007499999999999999700, 3.000000000000001300 ) ) ;
#188 = EDGE_CURVE ( 'NONE', #222, #32, #96, .T. ) ;
#189 = SECURITY_CLASSIFICATION_LEVEL ( 'unclassified' ) ;
#190 = DIRECTION ( 'NONE',  ( 0.0000000000000000000, -0.0000000000000000000, 1.000000000000000000 ) ) ;
#191 = VECTOR ( 'NONE', #138, 39.37007874015748100 ) ;
#192 = ORIENTED_EDGE ( 'NONE', *, *, #71, .T. ) ;
#193 = DIRECTION ( 'NONE',  ( -1.000000000000000000, 0.0000000000000000000, 9.106159978880878600E-017 ) ) ;
#194 = CC_DESIGN_APPROVAL ( #65, ( #230 ) ) ;
#195 = DIRECTION ( 'NONE',  ( -0.0000000000000000000, -0.0000000000000000000, 1.000000000000000000 ) ) ;
#196 = DIRECTION ( 'NONE',  ( 0.0000000000000000000, 1.000000000000000000, 0.0000000000000000000 ) ) ;
#197 = EDGE_CURVE ( 'NONE', #86, #44, #128, .T. ) ;
#198 = CARTESIAN_POINT ( 'NONE',  ( 2.999999999999999100, 0.007499999999999999700, 3.000000000000000400 ) ) ;
#199 = LOCAL_TIME ( 15, 4, 34.00000000000000000, #56 ) ;
#200 = ORIENTED_EDGE ( 'NONE', *, *, #85, .T. ) ;
#201 = CC_DESIGN_PERSON_AND_ORGANIZATION_ASSIGNMENT ( #69, #78, ( #39 ) ) ;
#202 = LOCAL_TIME ( 15, 4, 34.00000000000000000, #33 ) ;
#203 = APPROVAL_DATE_TIME ( #115, #12 ) ;
#204 = UNCERTAINTY_MEASURE_WITH_UNIT (LENGTH_MEASURE( 1.000000000000000100E-005 ), #143, 'distance_accuracy_value', 'NONE');
#205 = DIRECTION ( 'NONE',  ( 9.106159978880877400E-017, -0.0000000000000000000, 1.000000000000000000 ) ) ;
#206 = CC_DESIGN_DATE_AND_TIME_ASSIGNMENT ( #36, #150, ( #151 ) ) ;
#207 = MECHANICAL_CONTEXT ( 'NONE', #142, 'mechanical' ) ;
#208 = AXIS2_PLACEMENT_3D ( 'NONE', #125, #205, #145 ) ;
#209 = DIRECTION ( 'NONE',  ( 0.0000000000000000000, 0.0000000000000000000, 1.000000000000000000 ) ) ;
#210 = PERSON_AND_ORGANIZATION_ROLE ( 'design_supplier' ) ;
#211 = DIRECTION ( 'NONE',  ( 0.0000000000000000000, -0.0000000000000000000, 1.000000000000000000 ) ) ;
#212 = PERSON_AND_ORGANIZATION_ROLE ( 'classification_officer' ) ;
#213 = PRODUCT_DEFINITION ( 'UNKNOWN', '', #230, #72 ) ;
#214 = ORGANIZATION ( 'UNSPECIFIED', 'UNSPECIFIED', '' ) ;
#215 = CARTESIAN_POINT ( 'NONE',  ( 2.999999999999999100, 0.007499999999999999700, 3.000000000000000400 ) ) ;
#216 = SHAPE_DEFINITION_REPRESENTATION ( #109, #22 ) ;
#217 = EDGE_LOOP ( 'NONE', ( #53, #169, #167, #129 ) ) ;
#218 = EDGE_LOOP ( 'NONE', ( #88, #174, #200, #219 ) ) ;
#219 = ORIENTED_EDGE ( 'NONE', *, *, #89, .T. ) ;
#220 = CARTESIAN_POINT ( 'NONE',  ( 2.999999999999999100, -0.007499999999999999700, 3.000000000000000400 ) ) ;
#221 = DATE_AND_TIME ( #121, #202 ) ;
#222 = VERTEX_POINT ( 'NONE', #3 ) ;
#223 = PERSON_AND_ORGANIZATION ( #108, #214 ) ;
#224 = LENGTH_MEASURE_WITH_UNIT ( LENGTH_MEASURE( 0.02539999999999999900 ), #41 );
#225 = EDGE_LOOP ( 'NONE', ( #64, #117, #229, #192 ) ) ;
#226 = APPROVAL_STATUS ( 'not_yet_approved' ) ;
#227 = APPROVAL_STATUS ( 'not_yet_approved' ) ;
#228 = CARTESIAN_POINT ( 'NONE',  ( -3.000000000000001300, 0.007499999999999999700, -2.999999999999999600 ) ) ;
#229 = ORIENTED_EDGE ( 'NONE', *, *, #85, .F. ) ;
#230 = PRODUCT_DEFINITION_FORMATION_WITH_SPECIFIED_SOURCE ( 'ANY', '', #39, .NOT_KNOWN. ) ;
#231 = ORIENTED_EDGE ( 'NONE', *, *, #15, .T. ) ;
#232 = DIRECTION ( 'NONE',  ( 0.0000000000000000000, 1.000000000000000000, 0.0000000000000000000 ) ) ;
#233 = CARTESIAN_POINT ( 'NONE',  ( 2.999999999999999100, 0.007499999999999999700, 3.000000000000000400 ) ) ;
#234 = COORDINATED_UNIVERSAL_TIME_OFFSET ( 5, 0, .BEHIND. ) ;
#235 = VECTOR ( 'NONE', #100, 39.37007874015748100 ) ;
#236 = AXIS2_PLACEMENT_3D ( 'NONE', #215, #81, #152 ) ;
#237 = VECTOR ( 'NONE', #119, 39.37007874015748100 ) ;
#238 = LINE ( 'NONE', #80, #136 ) ;
#239 = LINE ( 'NONE', #13, #4 ) ;
#240 = VECTOR ( 'NONE', #195, 39.37007874015748100 ) ;
ENDSEC;
END-ISO-10303-21;
