ISO-10303-21;
HEADER;
FILE_DESCRIPTION (( 'STEP AP203' ),
    '1' );
FILE_NAME ('Web Model 48863_48861.step',
    '2017-04-26T16:42:44',
    ( '' ),
    ( '' ),
    'SwSTEP 2.0',
    'SolidWorks 2016',
    '' );
FILE_SCHEMA (( 'CONFIG_CONTROL_DESIGN' ));
ENDSEC;

DATA;
#1 = CC_DESIGN_PERSON_AND_ORGANIZATION_ASSIGNMENT ( #62, #274, ( #128 ) ) ;
#2 = CARTESIAN_POINT ( 'NONE',  ( -6.250000000000000000, 6.250000000000000000, 6.250000000000000000 ) ) ;
#3 = EDGE_LOOP ( 'NONE', ( #205, #57, #127, #253 ) ) ;
#4 = LINE ( 'NONE', #37, #54 ) ;
#5 = APPROVAL_STATUS ( 'not_yet_approved' ) ;
#6 = APPROVAL_PERSON_ORGANIZATION ( #135, #50, #293 ) ;
#7 = LINE ( 'NONE', #212, #209 ) ;
#8 = CARTESIAN_POINT ( 'NONE',  ( -6.250000000000000000, 6.250000000000000000, -6.250000000000000000 ) ) ;
#9 = CARTESIAN_POINT ( 'NONE',  ( 0.0000000000000000000, 0.0000000000000000000, 6.250000000000000000 ) ) ;
#10 = CARTESIAN_POINT ( 'NONE',  ( 0.0000000000000000000, -6.250000000000000000, -6.250000000000000000 ) ) ;
#11 = CLOSED_SHELL ( 'NONE', ( #295, #321, #196, #145, #96 ) ) ;
#12 =( NAMED_UNIT ( * ) PLANE_ANGLE_UNIT ( ) SI_UNIT ( $, .RADIAN. ) );
#13 = DIRECTION ( 'NONE',  ( -0.0000000000000000000, -0.0000000000000000000, -1.000000000000000000 ) ) ;
#14 = LINE ( 'NONE', #97, #149 ) ;
#15 = ORIENTED_EDGE ( 'NONE', *, *, #221, .T. ) ;
#16 = VERTEX_POINT ( 'NONE', #40 ) ;
#17 = DIRECTION ( 'NONE',  ( 0.7071067811865474600, -0.7071067811865474600, 0.0000000000000000000 ) ) ;
#18 = ORIENTED_EDGE ( 'NONE', *, *, #305, .T. ) ;
#19 = VECTOR ( 'NONE', #106, 1000.000000000000100 ) ;
#20 = ADVANCED_FACE ( 'NONE', ( #197 ), #310, .F. ) ;
#21 = AXIS2_PLACEMENT_3D ( 'NONE', #263, #93, #87 ) ;
#22 = DIRECTION ( 'NONE',  ( -1.000000000000000000, 0.0000000000000000000, 0.0000000000000000000 ) ) ;
#23 = ORIENTED_EDGE ( 'NONE', *, *, #153, .T. ) ;
#24 = CC_DESIGN_PERSON_AND_ORGANIZATION_ASSIGNMENT ( #28, #235, ( #238 ) ) ;
#25 = PLANE ( 'NONE',  #146 ) ;
#26 = AXIS2_PLACEMENT_3D ( 'NONE', #9, #155, #104 ) ;
#27 = CARTESIAN_POINT ( 'NONE',  ( 0.0000000000000000000, 0.0000000000000000000, 6.250000000000000000 ) ) ;
#28 = PERSON_AND_ORGANIZATION ( #183, #188 ) ;
#29 = VECTOR ( 'NONE', #51, 1000.000000000000000 ) ;
#30 = DESIGN_CONTEXT ( 'detailed design', #156, 'design' ) ;
#31 = DIRECTION ( 'NONE',  ( 1.000000000000000000, 0.0000000000000000000, 0.0000000000000000000 ) ) ;
#32 = CARTESIAN_POINT ( 'NONE',  ( 0.0000000000000000000, 0.0000000000000000000, 0.0000000000000000000 ) ) ;
#33 =( NAMED_UNIT ( * ) SI_UNIT ( $, .STERADIAN. ) SOLID_ANGLE_UNIT ( ) );
#34 = ORIENTED_EDGE ( 'NONE', *, *, #112, .F. ) ;
#35 = CARTESIAN_POINT ( 'NONE',  ( 6.250000000000000000, 0.0000000000000000000, -6.250000000000000000 ) ) ;
#36 = CC_DESIGN_PERSON_AND_ORGANIZATION_ASSIGNMENT ( #220, #73, ( #238 ) ) ;
#37 = CARTESIAN_POINT ( 'NONE',  ( 0.0000000000000000000, -6.250000000000000000, 6.250000000000000000 ) ) ;
#38 = DIRECTION ( 'NONE',  ( 0.0000000000000000000, -0.0000000000000000000, 1.000000000000000000 ) ) ;
#39 = ORIENTED_EDGE ( 'NONE', *, *, #124, .T. ) ;
#40 = CARTESIAN_POINT ( 'NONE',  ( 6.250000000000000000, 6.250000000000000000, -6.250000000000000000 ) ) ;
#41 = ADVANCED_FACE ( 'NONE', ( #302 ), #118, .F. ) ;
#42 = FACE_OUTER_BOUND ( 'NONE', #67, .T. ) ;
#43 = ORIENTED_EDGE ( 'NONE', *, *, #280, .F. ) ;
#44 = CC_DESIGN_DATE_AND_TIME_ASSIGNMENT ( #182, #248, ( #128 ) ) ;
#45 = LINE ( 'NONE', #254, #19 ) ;
#46 = CARTESIAN_POINT ( 'NONE',  ( 0.0000000000000000000, 0.0000000000000000000, -6.250000000000000000 ) ) ;
#47 = EDGE_CURVE ( 'NONE', #165, #317, #251, .T. ) ;
#48 = DIRECTION ( 'NONE',  ( -0.7071067811865474600, 0.7071067811865474600, 0.0000000000000000000 ) ) ;
#49 = VECTOR ( 'NONE', #105, 1000.000000000000000 ) ;
#50 = APPROVAL ( #277, 'UNSPECIFIED' ) ;
#51 = DIRECTION ( 'NONE',  ( -0.0000000000000000000, -0.0000000000000000000, -1.000000000000000000 ) ) ;
#52 = CARTESIAN_POINT ( 'NONE',  ( -0.0000000000000000000, 0.0000000000000000000, -6.250000000000000000 ) ) ;
#53 = MANIFOLD_SOLID_BREP ( 'Boss-Extrude3', #11 ) ;
#54 = VECTOR ( 'NONE', #61, 1000.000000000000000 ) ;
#55 = AXIS2_PLACEMENT_3D ( 'NONE', #314, #261, #237 ) ;
#56 = DIRECTION ( 'NONE',  ( 0.0000000000000000000, 1.000000000000000000, -0.0000000000000000000 ) ) ;
#57 = ORIENTED_EDGE ( 'NONE', *, *, #172, .F. ) ;
#58 = CC_DESIGN_PERSON_AND_ORGANIZATION_ASSIGNMENT ( #126, #202, ( #289 ) ) ;
#59 =( GEOMETRIC_REPRESENTATION_CONTEXT ( 3 ) GLOBAL_UNCERTAINTY_ASSIGNED_CONTEXT ( ( #178 ) ) GLOBAL_UNIT_ASSIGNED_CONTEXT ( ( #95, #12, #33 ) ) REPRESENTATION_CONTEXT ( 'NONE', 'WORKASPACE' ) );
#60 = EDGE_LOOP ( 'NONE', ( #301, #169, #217, #98 ) ) ;
#61 = DIRECTION ( 'NONE',  ( 1.000000000000000000, 0.0000000000000000000, 0.0000000000000000000 ) ) ;
#62 = PERSON_AND_ORGANIZATION ( #183, #188 ) ;
#63 = ORIENTED_EDGE ( 'NONE', *, *, #221, .F. ) ;
#64 = DIRECTION ( 'NONE',  ( 0.0000000000000000000, 1.000000000000000000, -0.0000000000000000000 ) ) ;
#65 = LINE ( 'NONE', #108, #84 ) ;
#66 = APPROVAL_PERSON_ORGANIZATION ( #157, #319, #114 ) ;
#67 = EDGE_LOOP ( 'NONE', ( #272, #300, #187 ) ) ;
#68 = CARTESIAN_POINT ( 'NONE',  ( 0.0000000000000000000, 6.250000000000000000, 6.250000000000000000 ) ) ;
#69 = ORIENTED_EDGE ( 'NONE', *, *, #158, .T. ) ;
#70 = CALENDAR_DATE ( 2017, 26, 4 ) ;
#71 = CC_DESIGN_APPROVAL ( #50, ( #128 ) ) ;
#72 = DIRECTION ( 'NONE',  ( -0.0000000000000000000, 0.0000000000000000000, 1.000000000000000000 ) ) ;
#73 = PERSON_AND_ORGANIZATION_ROLE ( 'design_supplier' ) ;
#74 = VERTEX_POINT ( 'NONE', #174 ) ;
#75 = CARTESIAN_POINT ( 'NONE',  ( 6.250000000000000000, -6.250000000000000000, -6.250000000000000000 ) ) ;
#76 = DIRECTION ( 'NONE',  ( -0.0000000000000000000, 0.0000000000000000000, 1.000000000000000000 ) ) ;
#77 = CC_DESIGN_SECURITY_CLASSIFICATION ( #128, ( #238 ) ) ;
#78 = FACE_OUTER_BOUND ( 'NONE', #166, .T. ) ;
#79 = LINE ( 'NONE', #27, #162 ) ;
#80 = CARTESIAN_POINT ( 'NONE',  ( -6.250000000000000000, 6.250000000000000000, 6.250000000000000000 ) ) ;
#81 = DIRECTION ( 'NONE',  ( 0.0000000000000000000, 1.000000000000000000, -0.0000000000000000000 ) ) ;
#82 = PERSON_AND_ORGANIZATION_ROLE ( 'creator' ) ;
#83 = APPROVAL_DATE_TIME ( #121, #167 ) ;
#84 = VECTOR ( 'NONE', #191, 1000.000000000000000 ) ;
#85 = CARTESIAN_POINT ( 'NONE',  ( 0.0000000000000000000, 0.0000000000000000000, -6.250000000000000000 ) ) ;
#86 = PRODUCT_RELATED_PRODUCT_CATEGORY ( 'detail', '', ( #289 ) ) ;
#87 = DIRECTION ( 'NONE',  ( 1.000000000000000000, 0.0000000000000000000, 0.0000000000000000000 ) ) ;
#88 = DATE_AND_TIME ( #143, #193 ) ;
#89 = COORDINATED_UNIVERSAL_TIME_OFFSET ( 5, 0, .BEHIND. ) ;
#90 = APPLICATION_PROTOCOL_DEFINITION ( 'international standard', 'config_control_design', 1994, #156 ) ;
#91 = FACE_OUTER_BOUND ( 'NONE', #60, .T. ) ;
#92 = ORIENTED_EDGE ( 'NONE', *, *, #189, .F. ) ;
#93 = DIRECTION ( 'NONE',  ( -0.0000000000000000000, 0.0000000000000000000, 1.000000000000000000 ) ) ;
#94 = LINE ( 'NONE', #286, #268 ) ;
#95 =( LENGTH_UNIT ( ) NAMED_UNIT ( * ) SI_UNIT ( .MILLI., .METRE. ) );
#96 = ADVANCED_FACE ( 'NONE', ( #257 ), #100, .F. ) ;
#97 = CARTESIAN_POINT ( 'NONE',  ( -6.250000000000000000, 0.0000000000000000000, -6.250000000000000000 ) ) ;
#98 = ORIENTED_EDGE ( 'NONE', *, *, #172, .T. ) ;
#99 = EDGE_LOOP ( 'NONE', ( #181, #228, #34 ) ) ;
#100 = PLANE ( 'NONE',  #278 ) ;
#101 = LINE ( 'NONE', #35, #229 ) ;
#102 = AXIS2_PLACEMENT_3D ( 'NONE', #46, #72, #233 ) ;
#103 = FACE_OUTER_BOUND ( 'NONE', #180, .T. ) ;
#104 = DIRECTION ( 'NONE',  ( -0.7071067811865474600, 0.7071067811865474600, 0.0000000000000000000 ) ) ;
#105 = DIRECTION ( 'NONE',  ( 1.000000000000000000, 0.0000000000000000000, 0.0000000000000000000 ) ) ;
#106 = DIRECTION ( 'NONE',  ( 0.7071067811865474600, -0.7071067811865474600, 0.0000000000000000000 ) ) ;
#107 = EDGE_CURVE ( 'NONE', #262, #16, #101, .T. ) ;
#108 = CARTESIAN_POINT ( 'NONE',  ( -6.250000000000000000, 0.0000000000000000000, 6.250000000000000000 ) ) ;
#109 = SECURITY_CLASSIFICATION_LEVEL ( 'unclassified' ) ;
#110 = APPROVAL_PERSON_ORGANIZATION ( #213, #167, #130 ) ;
#111 = DIRECTION ( 'NONE',  ( -1.000000000000000000, 0.0000000000000000000, 0.0000000000000000000 ) ) ;
#112 = EDGE_CURVE ( 'NONE', #317, #231, #147, .T. ) ;
#113 = DIRECTION ( 'NONE',  ( 1.000000000000000000, 0.0000000000000000000, 0.0000000000000000000 ) ) ;
#114 = APPROVAL_ROLE ( '' ) ;
#115 = DIRECTION ( 'NONE',  ( -0.0000000000000000000, -0.0000000000000000000, -1.000000000000000000 ) ) ;
#116 = VERTEX_POINT ( 'NONE', #242 ) ;
#117 = AXIS2_PLACEMENT_3D ( 'NONE', #160, #22, #218 ) ;
#118 = PLANE ( 'NONE',  #55 ) ;
#119 = ORIENTED_EDGE ( 'NONE', *, *, #271, .F. ) ;
#120 = ADVANCED_FACE ( 'NONE', ( #103 ), #194, .T. ) ;
#121 = DATE_AND_TIME ( #163, #123 ) ;
#122 = FACE_OUTER_BOUND ( 'NONE', #287, .T. ) ;
#123 = LOCAL_TIME ( 12, 42, 44.00000000000000000, #190 ) ;
#124 = EDGE_CURVE ( 'NONE', #131, #16, #255, .T. ) ;
#125 = CARTESIAN_POINT ( 'NONE',  ( 6.250000000000000000, 0.0000000000000000000, 6.250000000000000000 ) ) ;
#126 = PERSON_AND_ORGANIZATION ( #183, #188 ) ;
#127 = ORIENTED_EDGE ( 'NONE', *, *, #137, .F. ) ;
#128 = SECURITY_CLASSIFICATION ( '', '', #109 ) ;
#129 = DIRECTION ( 'NONE',  ( -0.0000000000000000000, -0.0000000000000000000, -1.000000000000000000 ) ) ;
#130 = APPROVAL_ROLE ( '' ) ;
#131 = VERTEX_POINT ( 'NONE', #177 ) ;
#132 = CARTESIAN_POINT ( 'NONE',  ( -0.0000000000000000000, 6.250000000000000000, -6.250000000000000000 ) ) ;
#133 = PLANE ( 'NONE',  #252 ) ;
#134 = VECTOR ( 'NONE', #13, 1000.000000000000000 ) ;
#135 = PERSON_AND_ORGANIZATION ( #183, #188 ) ;
#136 = CARTESIAN_POINT ( 'NONE',  ( -6.250000000000000000, -6.250000000000000000, 6.250000000000000000 ) ) ;
#137 = EDGE_CURVE ( 'NONE', #309, #116, #236, .T. ) ;
#138 = COORDINATED_UNIVERSAL_TIME_OFFSET ( 5, 0, .BEHIND. ) ;
#139 = ORIENTED_EDGE ( 'NONE', *, *, #204, .F. ) ;
#140 = VECTOR ( 'NONE', #164, 1000.000000000000000 ) ;
#141 = ORIENTED_EDGE ( 'NONE', *, *, #207, .F. ) ;
#142 = APPROVAL_DATE_TIME ( #88, #319 ) ;
#143 = CALENDAR_DATE ( 2017, 26, 4 ) ;
#144 = ORIENTED_EDGE ( 'NONE', *, *, #137, .T. ) ;
#145 = ADVANCED_FACE ( 'NONE', ( #122 ), #216, .T. ) ;
#146 = AXIS2_PLACEMENT_3D ( 'NONE', #68, #211, #38 ) ;
#147 = LINE ( 'NONE', #10, #49 ) ;
#148 = FACE_OUTER_BOUND ( 'NONE', #3, .T. ) ;
#149 = VECTOR ( 'NONE', #81, 1000.000000000000000 ) ;
#150 = CARTESIAN_POINT ( 'NONE',  ( 6.250000000000000000, -6.250000000000000000, 6.250000000000000000 ) ) ;
#151 = DIRECTION ( 'NONE',  ( 1.000000000000000000, 0.0000000000000000000, 0.0000000000000000000 ) ) ;
#152 = VERTEX_POINT ( 'NONE', #8 ) ;
#153 = EDGE_CURVE ( 'NONE', #173, #152, #264, .T. ) ;
#154 = EDGE_LOOP ( 'NONE', ( #141, #241, #307 ) ) ;
#155 = DIRECTION ( 'NONE',  ( 0.7071067811865475700, 0.7071067811865475700, -0.0000000000000000000 ) ) ;
#156 = APPLICATION_CONTEXT ( 'configuration controlled 3d designs of mechanical parts and assemblies' ) ;
#157 = PERSON_AND_ORGANIZATION ( #183, #188 ) ;
#158 = EDGE_CURVE ( 'NONE', #173, #299, #79, .T. ) ;
#159 = CARTESIAN_POINT ( 'NONE',  ( 6.250000000000000000, -6.250000000000000000, 6.250000000000000000 ) ) ;
#160 = CARTESIAN_POINT ( 'NONE',  ( 6.250000000000000000, 0.0000000000000000000, 6.250000000000000000 ) ) ;
#161 = EDGE_CURVE ( 'NONE', #165, #299, #4, .T. ) ;
#162 = VECTOR ( 'NONE', #17, 1000.000000000000100 ) ;
#163 = CALENDAR_DATE ( 2017, 26, 4 ) ;
#164 = DIRECTION ( 'NONE',  ( -0.0000000000000000000, -0.0000000000000000000, -1.000000000000000000 ) ) ;
#165 = VERTEX_POINT ( 'NONE', #136 ) ;
#166 = EDGE_LOOP ( 'NONE', ( #92, #119, #18, #39 ) ) ;
#167 = APPROVAL ( #243, 'UNSPECIFIED' ) ;
#168 = CALENDAR_DATE ( 2017, 26, 4 ) ;
#169 = ORIENTED_EDGE ( 'NONE', *, *, #124, .F. ) ;
#170 = LINE ( 'NONE', #2, #234 ) ;
#171 = ORIENTED_EDGE ( 'NONE', *, *, #176, .T. ) ;
#172 = EDGE_CURVE ( 'NONE', #116, #262, #94, .T. ) ;
#173 = VERTEX_POINT ( 'NONE', #296 ) ;
#174 = CARTESIAN_POINT ( 'NONE',  ( -6.250000000000000000, 6.250000000000000000, -6.250000000000000000 ) ) ;
#175 = ORIENTED_EDGE ( 'NONE', *, *, #112, .T. ) ;
#176 = EDGE_CURVE ( 'NONE', #165, #173, #65, .T. ) ;
#177 = CARTESIAN_POINT ( 'NONE',  ( 6.250000000000000000, 6.250000000000000000, 6.250000000000000000 ) ) ;
#178 = UNCERTAINTY_MEASURE_WITH_UNIT (LENGTH_MEASURE( 1.000000000000000100E-005 ), #95, 'distance_accuracy_value', 'NONE');
#179 = CARTESIAN_POINT ( 'NONE',  ( -6.250000000000000000, 0.0000000000000000000, 6.250000000000000000 ) ) ;
#180 = EDGE_LOOP ( 'NONE', ( #43, #281, #171, #23 ) ) ;
#181 = ORIENTED_EDGE ( 'NONE', *, *, #280, .T. ) ;
#182 = DATE_AND_TIME ( #288, #195 ) ;
#183 = PERSON ( 'UNSPECIFIED', 'UNSPECIFIED', 'UNSPECIFIED', ('UNSPECIFIED'), ('UNSPECIFIED'), ('UNSPECIFIED') ) ;
#184 = EDGE_CURVE ( 'NONE', #116, #131, #275, .T. ) ;
#185 = APPLICATION_CONTEXT ( 'configuration controlled 3d designs of mechanical parts and assemblies' ) ;
#186 = CARTESIAN_POINT ( 'NONE',  ( 0.0000000000000000000, 0.0000000000000000000, 6.250000000000000000 ) ) ;
#187 = ORIENTED_EDGE ( 'NONE', *, *, #158, .F. ) ;
#188 = ORGANIZATION ( 'UNSPECIFIED', 'UNSPECIFIED', '' ) ;
#189 = EDGE_CURVE ( 'NONE', #74, #16, #201, .T. ) ;
#190 = COORDINATED_UNIVERSAL_TIME_OFFSET ( 5, 0, .BEHIND. ) ;
#191 = DIRECTION ( 'NONE',  ( 0.0000000000000000000, 1.000000000000000000, -0.0000000000000000000 ) ) ;
#192 = CC_DESIGN_APPROVAL ( #167, ( #270 ) ) ;
#193 = LOCAL_TIME ( 12, 42, 44.00000000000000000, #138 ) ;
#194 = PLANE ( 'NONE',  #258 ) ;
#195 = LOCAL_TIME ( 12, 42, 44.00000000000000000, #89 ) ;
#196 = ADVANCED_FACE ( 'NONE', ( #78 ), #25, .T. ) ;
#197 = FACE_OUTER_BOUND ( 'NONE', #99, .T. ) ;
#198 = COORDINATED_UNIVERSAL_TIME_OFFSET ( 5, 0, .BEHIND. ) ;
#199 = DATE_TIME_ROLE ( 'creation_date' ) ;
#200 = DIRECTION ( 'NONE',  ( -0.0000000000000000000, 0.0000000000000000000, 1.000000000000000000 ) ) ;
#201 = LINE ( 'NONE', #132, #206 ) ;
#202 = PERSON_AND_ORGANIZATION_ROLE ( 'design_owner' ) ;
#203 = CARTESIAN_POINT ( 'NONE',  ( -6.250000000000000000, -6.250000000000000000, 6.250000000000000000 ) ) ;
#204 = EDGE_CURVE ( 'NONE', #152, #231, #45, .T. ) ;
#205 = ORIENTED_EDGE ( 'NONE', *, *, #207, .T. ) ;
#206 = VECTOR ( 'NONE', #151, 1000.000000000000000 ) ;
#207 = EDGE_CURVE ( 'NONE', #74, #262, #247, .T. ) ;
#208 = ORIENTED_EDGE ( 'NONE', *, *, #153, .F. ) ;
#209 = VECTOR ( 'NONE', #304, 1000.000000000000000 ) ;
#210 = CC_DESIGN_APPROVAL ( #319, ( #238 ) ) ;
#211 = DIRECTION ( 'NONE',  ( 0.0000000000000000000, 1.000000000000000000, 0.0000000000000000000 ) ) ;
#212 = CARTESIAN_POINT ( 'NONE',  ( 0.0000000000000000000, 6.250000000000000000, 6.250000000000000000 ) ) ;
#213 = PERSON_AND_ORGANIZATION ( #183, #188 ) ;
#214 = PERSON_AND_ORGANIZATION ( #183, #188 ) ;
#215 = PRODUCT_DEFINITION_SHAPE ( 'NONE', 'NONE',  #270 ) ;
#216 = PLANE ( 'NONE',  #291 ) ;
#217 = ORIENTED_EDGE ( 'NONE', *, *, #184, .F. ) ;
#218 = DIRECTION ( 'NONE',  ( 0.0000000000000000000, 0.0000000000000000000, 1.000000000000000000 ) ) ;
#219 = LINE ( 'NONE', #150, #140 ) ;
#220 = PERSON_AND_ORGANIZATION ( #183, #188 ) ;
#221 = EDGE_CURVE ( 'NONE', #299, #231, #219, .T. ) ;
#222 = CARTESIAN_POINT ( 'NONE',  ( 0.0000000000000000000, 0.0000000000000000000, 6.250000000000000000 ) ) ;
#223 = ADVANCED_FACE ( 'NONE', ( #42 ), #249, .T. ) ;
#224 = SHAPE_DEFINITION_REPRESENTATION ( #215, #266 ) ;
#225 = ORIENTED_EDGE ( 'NONE', *, *, #305, .F. ) ;
#226 = COORDINATED_UNIVERSAL_TIME_OFFSET ( 5, 0, .BEHIND. ) ;
#227 = DIRECTION ( 'NONE',  ( 0.0000000000000000000, 0.0000000000000000000, 1.000000000000000000 ) ) ;
#228 = ORIENTED_EDGE ( 'NONE', *, *, #204, .T. ) ;
#229 = VECTOR ( 'NONE', #64, 1000.000000000000000 ) ;
#230 = CC_DESIGN_DATE_AND_TIME_ASSIGNMENT ( #312, #199, ( #270 ) ) ;
#231 = VERTEX_POINT ( 'NONE', #75 ) ;
#232 = CLOSED_SHELL ( 'NONE', ( #120, #41, #250, #223, #20 ) ) ;
#233 = DIRECTION ( 'NONE',  ( 1.000000000000000000, 0.0000000000000000000, 0.0000000000000000000 ) ) ;
#234 = VECTOR ( 'NONE', #115, 1000.000000000000000 ) ;
#235 = PERSON_AND_ORGANIZATION_ROLE ( 'creator' ) ;
#236 = LINE ( 'NONE', #313, #316 ) ;
#237 = DIRECTION ( 'NONE',  ( 0.0000000000000000000, -0.0000000000000000000, 1.000000000000000000 ) ) ;
#238 = PRODUCT_DEFINITION_FORMATION_WITH_SPECIFIED_SOURCE ( 'ANY', '', #289, .NOT_KNOWN. ) ;
#239 = LOCAL_TIME ( 12, 42, 44.00000000000000000, #198 ) ;
#240 = APPLICATION_PROTOCOL_DEFINITION ( 'international standard', 'config_control_design', 1994, #185 ) ;
#241 = ORIENTED_EDGE ( 'NONE', *, *, #189, .T. ) ;
#242 = CARTESIAN_POINT ( 'NONE',  ( 6.250000000000000000, -6.250000000000000000, 6.250000000000000000 ) ) ;
#243 = APPROVAL_STATUS ( 'not_yet_approved' ) ;
#244 = VECTOR ( 'NONE', #56, 1000.000000000000000 ) ;
#245 = MECHANICAL_CONTEXT ( 'NONE', #185, 'mechanical' ) ;
#246 = VECTOR ( 'NONE', #306, 1000.000000000000100 ) ;
#247 = LINE ( 'NONE', #52, #246 ) ;
#248 = DATE_TIME_ROLE ( 'classification_date' ) ;
#249 = PLANE ( 'NONE',  #21 ) ;
#250 = ADVANCED_FACE ( 'NONE', ( #265 ), #273, .T. ) ;
#251 = LINE ( 'NONE', #203, #29 ) ;
#252 = AXIS2_PLACEMENT_3D ( 'NONE', #186, #267, #48 ) ;
#253 = ORIENTED_EDGE ( 'NONE', *, *, #271, .T. ) ;
#254 = CARTESIAN_POINT ( 'NONE',  ( -0.0000000000000000000, 0.0000000000000000000, -6.250000000000000000 ) ) ;
#255 = LINE ( 'NONE', #303, #292 ) ;
#256 = AXIS2_PLACEMENT_3D ( 'NONE', #32, #308, #113 ) ;
#257 = FACE_OUTER_BOUND ( 'NONE', #154, .T. ) ;
#258 = AXIS2_PLACEMENT_3D ( 'NONE', #179, #111, #227 ) ;
#259 = ORIENTED_EDGE ( 'NONE', *, *, #184, .T. ) ;
#260 = APPROVAL_DATE_TIME ( #297, #50 ) ;
#261 = DIRECTION ( 'NONE',  ( 0.0000000000000000000, 1.000000000000000000, 0.0000000000000000000 ) ) ;
#262 = VERTEX_POINT ( 'NONE', #284 ) ;
#263 = CARTESIAN_POINT ( 'NONE',  ( 0.0000000000000000000, 0.0000000000000000000, 6.250000000000000000 ) ) ;
#264 = LINE ( 'NONE', #80, #134 ) ;
#265 = FACE_OUTER_BOUND ( 'NONE', #290, .T. ) ;
#266 = ADVANCED_BREP_SHAPE_REPRESENTATION ( 'Web Model 48863_48861', ( #298, #53, #256 ), #59 ) ;
#267 = DIRECTION ( 'NONE',  ( 0.7071067811865475700, 0.7071067811865475700, -0.0000000000000000000 ) ) ;
#268 = VECTOR ( 'NONE', #129, 1000.000000000000000 ) ;
#269 = PLANE ( 'NONE',  #117 ) ;
#270 = PRODUCT_DEFINITION ( 'UNKNOWN', '', #238, #30 ) ;
#271 = EDGE_CURVE ( 'NONE', #309, #74, #170, .T. ) ;
#272 = ORIENTED_EDGE ( 'NONE', *, *, #176, .F. ) ;
#273 = PLANE ( 'NONE',  #26 ) ;
#274 = PERSON_AND_ORGANIZATION_ROLE ( 'classification_officer' ) ;
#275 = LINE ( 'NONE', #125, #244 ) ;
#276 = LOCAL_TIME ( 12, 42, 44.00000000000000000, #226 ) ;
#277 = APPROVAL_STATUS ( 'not_yet_approved' ) ;
#278 = AXIS2_PLACEMENT_3D ( 'NONE', #85, #76, #279 ) ;
#279 = DIRECTION ( 'NONE',  ( 1.000000000000000000, 0.0000000000000000000, 0.0000000000000000000 ) ) ;
#280 = EDGE_CURVE ( 'NONE', #317, #152, #14, .T. ) ;
#281 = ORIENTED_EDGE ( 'NONE', *, *, #47, .F. ) ;
#282 = ORIENTED_EDGE ( 'NONE', *, *, #47, .T. ) ;
#283 = DIRECTION ( 'NONE',  ( -0.0000000000000000000, -0.0000000000000000000, -1.000000000000000000 ) ) ;
#284 = CARTESIAN_POINT ( 'NONE',  ( 6.250000000000000000, -6.250000000000000000, -6.250000000000000000 ) ) ;
#285 = CARTESIAN_POINT ( 'NONE',  ( -6.250000000000000000, -6.250000000000000000, -6.250000000000000000 ) ) ;
#286 = CARTESIAN_POINT ( 'NONE',  ( 6.250000000000000000, -6.250000000000000000, 6.250000000000000000 ) ) ;
#287 = EDGE_LOOP ( 'NONE', ( #144, #259, #225 ) ) ;
#288 = CALENDAR_DATE ( 2017, 26, 4 ) ;
#289 = PRODUCT ( 'Web Model 48863_48861', 'Web Model 48863_48861', '', ( #245 ) ) ;
#290 = EDGE_LOOP ( 'NONE', ( #139, #208, #69, #15 ) ) ;
#291 = AXIS2_PLACEMENT_3D ( 'NONE', #222, #200, #31 ) ;
#292 = VECTOR ( 'NONE', #283, 1000.000000000000000 ) ;
#293 = APPROVAL_ROLE ( '' ) ;
#294 = CC_DESIGN_PERSON_AND_ORGANIZATION_ASSIGNMENT ( #214, #82, ( #270 ) ) ;
#295 = ADVANCED_FACE ( 'NONE', ( #148 ), #133, .F. ) ;
#296 = CARTESIAN_POINT ( 'NONE',  ( -6.250000000000000000, 6.250000000000000000, 6.250000000000000000 ) ) ;
#297 = DATE_AND_TIME ( #70, #276 ) ;
#298 = MANIFOLD_SOLID_BREP ( 'Boss-Extrude2', #232 ) ;
#299 = VERTEX_POINT ( 'NONE', #159 ) ;
#300 = ORIENTED_EDGE ( 'NONE', *, *, #161, .T. ) ;
#301 = ORIENTED_EDGE ( 'NONE', *, *, #107, .T. ) ;
#302 = FACE_OUTER_BOUND ( 'NONE', #318, .T. ) ;
#303 = CARTESIAN_POINT ( 'NONE',  ( 6.250000000000000000, 6.250000000000000000, 6.250000000000000000 ) ) ;
#304 = DIRECTION ( 'NONE',  ( 1.000000000000000000, 0.0000000000000000000, 0.0000000000000000000 ) ) ;
#305 = EDGE_CURVE ( 'NONE', #309, #131, #7, .T. ) ;
#306 = DIRECTION ( 'NONE',  ( 0.7071067811865474600, -0.7071067811865474600, 0.0000000000000000000 ) ) ;
#307 = ORIENTED_EDGE ( 'NONE', *, *, #107, .F. ) ;
#308 = DIRECTION ( 'NONE',  ( 0.0000000000000000000, 0.0000000000000000000, 1.000000000000000000 ) ) ;
#309 = VERTEX_POINT ( 'NONE', #320 ) ;
#310 = PLANE ( 'NONE',  #102 ) ;
#311 = ORIENTED_EDGE ( 'NONE', *, *, #161, .F. ) ;
#312 = DATE_AND_TIME ( #168, #239 ) ;
#313 = CARTESIAN_POINT ( 'NONE',  ( 0.0000000000000000000, 0.0000000000000000000, 6.250000000000000000 ) ) ;
#314 = CARTESIAN_POINT ( 'NONE',  ( 0.0000000000000000000, -6.250000000000000000, 6.250000000000000000 ) ) ;
#315 = DIRECTION ( 'NONE',  ( 0.7071067811865474600, -0.7071067811865474600, 0.0000000000000000000 ) ) ;
#316 = VECTOR ( 'NONE', #315, 1000.000000000000100 ) ;
#317 = VERTEX_POINT ( 'NONE', #285 ) ;
#318 = EDGE_LOOP ( 'NONE', ( #175, #63, #311, #282 ) ) ;
#319 = APPROVAL ( #5, 'UNSPECIFIED' ) ;
#320 = CARTESIAN_POINT ( 'NONE',  ( -6.250000000000000000, 6.250000000000000000, 6.250000000000000000 ) ) ;
#321 = ADVANCED_FACE ( 'NONE', ( #91 ), #269, .F. ) ;
ENDSEC;
END-ISO-10303-21;
