ISO-10303-21;
HEADER;
FILE_DESCRIPTION (( 'STEP AP203' ),
    '1' );
FILE_NAME ('Web Model 59280_59281.step',
    '2019-02-28T19:48:54',
    ( '' ),
    ( '' ),
    'SwSTEP 2.0',
    'SolidWorks 2016',
    '' );
FILE_SCHEMA (( 'CONFIG_CONTROL_DESIGN' ));
ENDSEC;

DATA;
#1 = EDGE_CURVE ( 'NONE', #225, #96, #75, .T. ) ;
#2 = ORIENTED_EDGE ( 'NONE', *, *, #79, .T. ) ;
#3 = CALENDAR_DATE ( 2019, 28, 2 ) ;
#4 = LINE ( 'NONE', #204, #16 ) ;
#5 = MANIFOLD_SOLID_BREP ( 'Boss-Extrude1', #15 ) ;
#6 = LINE ( 'NONE', #56, #230 ) ;
#7 = ORIENTED_EDGE ( 'NONE', *, *, #159, .T. ) ;
#8 = EDGE_CURVE ( 'NONE', #234, #225, #200, .T. ) ;
#9 =( LENGTH_UNIT ( ) NAMED_UNIT ( * ) SI_UNIT ( .MILLI., .METRE. ) );
#10 = AXIS2_PLACEMENT_3D ( 'NONE', #206, #173, #157 ) ;
#11 = DIRECTION ( 'NONE',  ( 1.000000000000000000, 2.276539994720219300E-016, -0.0000000000000000000 ) ) ;
#12 = PERSON_AND_ORGANIZATION_ROLE ( 'creator' ) ;
#13 = DIRECTION ( 'NONE',  ( 1.000000000000000000, 1.821231995776175500E-016, 0.0000000000000000000 ) ) ;
#14 = CC_DESIGN_PERSON_AND_ORGANIZATION_ASSIGNMENT ( #70, #106, ( #114 ) ) ;
#15 = CLOSED_SHELL ( 'NONE', ( #176, #178, #98, #80, #215, #128 ) ) ;
#16 = VECTOR ( 'NONE', #186, 1000.000000000000000 ) ;
#17 = ORIENTED_EDGE ( 'NONE', *, *, #228, .F. ) ;
#18 = DIRECTION ( 'NONE',  ( -1.000000000000000000, 0.0000000000000000000, 0.0000000000000000000 ) ) ;
#19 = LOCAL_TIME ( 14, 48, 54.00000000000000000, #35 ) ;
#20 = ORIENTED_EDGE ( 'NONE', *, *, #151, .T. ) ;
#21 = CARTESIAN_POINT ( 'NONE',  ( -38.10000000000001600, -12.70000000000000300, -0.7600000000000000100 ) ) ;
#22 = CARTESIAN_POINT ( 'NONE',  ( 0.0000000000000000000, 0.0000000000000000000, -0.7600000000000000100 ) ) ;
#23 = VERTEX_POINT ( 'NONE', #166 ) ;
#24 = CARTESIAN_POINT ( 'NONE',  ( -38.10000000000001600, -12.70000000000000300, 0.7600000000000000100 ) ) ;
#25 =( GEOMETRIC_REPRESENTATION_CONTEXT ( 3 ) GLOBAL_UNCERTAINTY_ASSIGNED_CONTEXT ( ( #143 ) ) GLOBAL_UNIT_ASSIGNED_CONTEXT ( ( #9, #167, #27 ) ) REPRESENTATION_CONTEXT ( 'NONE', 'WORKASPACE' ) );
#26 = APPLICATION_PROTOCOL_DEFINITION ( 'international standard', 'config_control_design', 1994, #207 ) ;
#27 =( NAMED_UNIT ( * ) SI_UNIT ( $, .STERADIAN. ) SOLID_ANGLE_UNIT ( ) );
#28 = DIRECTION ( 'NONE',  ( -0.0000000000000000000, -1.000000000000000000, -0.0000000000000000000 ) ) ;
#29 = PERSON_AND_ORGANIZATION ( #142, #129 ) ;
#30 = LINE ( 'NONE', #73, #185 ) ;
#31 = APPROVAL_STATUS ( 'not_yet_approved' ) ;
#32 = EDGE_CURVE ( 'NONE', #235, #221, #111, .T. ) ;
#33 = APPROVAL_PERSON_ORGANIZATION ( #220, #219, #63 ) ;
#34 = ORIENTED_EDGE ( 'NONE', *, *, #1, .T. ) ;
#35 = COORDINATED_UNIVERSAL_TIME_OFFSET ( 5, 0, .BEHIND. ) ;
#36 = ORIENTED_EDGE ( 'NONE', *, *, #32, .F. ) ;
#37 = LOCAL_TIME ( 14, 48, 54.00000000000000000, #88 ) ;
#38 = ORIENTED_EDGE ( 'NONE', *, *, #148, .T. ) ;
#39 = CC_DESIGN_DATE_AND_TIME_ASSIGNMENT ( #122, #81, ( #71 ) ) ;
#40 = LINE ( 'NONE', #115, #52 ) ;
#41 = ORIENTED_EDGE ( 'NONE', *, *, #116, .T. ) ;
#42 = CARTESIAN_POINT ( 'NONE',  ( -38.10000000000001600, 12.69999999999999600, 0.7600000000000000100 ) ) ;
#43 = DIRECTION ( 'NONE',  ( -0.0000000000000000000, -1.000000000000000000, -0.0000000000000000000 ) ) ;
#44 = EDGE_CURVE ( 'NONE', #234, #170, #132, .T. ) ;
#45 = DIRECTION ( 'NONE',  ( 1.000000000000000000, 0.0000000000000000000, -0.0000000000000000000 ) ) ;
#46 = APPROVAL_DATE_TIME ( #67, #219 ) ;
#47 = APPLICATION_CONTEXT ( 'configuration controlled 3d designs of mechanical parts and assemblies' ) ;
#48 = VECTOR ( 'NONE', #208, 1000.000000000000000 ) ;
#49 = CARTESIAN_POINT ( 'NONE',  ( -38.10000000000001600, -12.70000000000000300, 0.7600000000000000100 ) ) ;
#50 = ORIENTED_EDGE ( 'NONE', *, *, #32, .T. ) ;
#51 = FACE_OUTER_BOUND ( 'NONE', #194, .T. ) ;
#52 = VECTOR ( 'NONE', #43, 1000.000000000000000 ) ;
#53 = CC_DESIGN_APPROVAL ( #135, ( #71 ) ) ;
#54 = CC_DESIGN_PERSON_AND_ORGANIZATION_ASSIGNMENT ( #210, #229, ( #105 ) ) ;
#55 = AXIS2_PLACEMENT_3D ( 'NONE', #104, #232, #13 ) ;
#56 = CARTESIAN_POINT ( 'NONE',  ( 38.09999999999998700, 12.70000000000001000, 0.7600000000000000100 ) ) ;
#57 = COORDINATED_UNIVERSAL_TIME_OFFSET ( 5, 0, .BEHIND. ) ;
#58 = DIRECTION ( 'NONE',  ( 0.0000000000000000000, 1.000000000000000000, 0.0000000000000000000 ) ) ;
#59 = DATE_TIME_ROLE ( 'creation_date' ) ;
#60 = PLANE ( 'NONE',  #214 ) ;
#61 = DIRECTION ( 'NONE',  ( -0.0000000000000000000, -0.0000000000000000000, -1.000000000000000000 ) ) ;
#62 = LINE ( 'NONE', #85, #179 ) ;
#63 = APPROVAL_ROLE ( '' ) ;
#64 = ORIENTED_EDGE ( 'NONE', *, *, #228, .T. ) ;
#65 = CC_DESIGN_APPROVAL ( #219, ( #201 ) ) ;
#66 = APPROVAL_STATUS ( 'not_yet_approved' ) ;
#67 = DATE_AND_TIME ( #236, #126 ) ;
#68 = EDGE_LOOP ( 'NONE', ( #50, #118, #93, #41 ) ) ;
#69 = AXIS2_PLACEMENT_3D ( 'NONE', #22, #152, #45 ) ;
#70 = PERSON_AND_ORGANIZATION ( #142, #129 ) ;
#71 = SECURITY_CLASSIFICATION ( '', '', #102 ) ;
#72 = ORIENTED_EDGE ( 'NONE', *, *, #159, .F. ) ;
#73 = CARTESIAN_POINT ( 'NONE',  ( 38.09999999999998700, 12.70000000000001000, 0.7600000000000000100 ) ) ;
#74 = PERSON_AND_ORGANIZATION ( #142, #129 ) ;
#75 = LINE ( 'NONE', #211, #147 ) ;
#76 = CC_DESIGN_SECURITY_CLASSIFICATION ( #71, ( #114 ) ) ;
#77 = DIRECTION ( 'NONE',  ( -1.000000000000000000, -1.821231995776175700E-016, 0.0000000000000000000 ) ) ;
#78 = ADVANCED_BREP_SHAPE_REPRESENTATION ( 'Web Model 59280_59281', ( #5, #198 ), #25 ) ;
#79 = EDGE_CURVE ( 'NONE', #221, #170, #197, .T. ) ;
#80 = ADVANCED_FACE ( 'NONE', ( #100 ), #103, .F. ) ;
#81 = DATE_TIME_ROLE ( 'classification_date' ) ;
#82 = CC_DESIGN_PERSON_AND_ORGANIZATION_ASSIGNMENT ( #146, #188, ( #114 ) ) ;
#83 = APPLICATION_PROTOCOL_DEFINITION ( 'international standard', 'config_control_design', 1994, #47 ) ;
#84 = EDGE_LOOP ( 'NONE', ( #20, #156, #95, #124 ) ) ;
#85 = CARTESIAN_POINT ( 'NONE',  ( 38.09999999999998700, -12.69999999999998500, -0.7600000000000000100 ) ) ;
#86 = CARTESIAN_POINT ( 'NONE',  ( 0.0000000000000000000, 0.0000000000000000000, 0.0000000000000000000 ) ) ;
#87 = APPROVAL_ROLE ( '' ) ;
#88 = COORDINATED_UNIVERSAL_TIME_OFFSET ( 5, 0, .BEHIND. ) ;
#89 = ORIENTED_EDGE ( 'NONE', *, *, #144, .T. ) ;
#90 = FACE_OUTER_BOUND ( 'NONE', #213, .T. ) ;
#91 = FACE_OUTER_BOUND ( 'NONE', #183, .T. ) ;
#92 = CC_DESIGN_PERSON_AND_ORGANIZATION_ASSIGNMENT ( #74, #12, ( #201 ) ) ;
#93 = ORIENTED_EDGE ( 'NONE', *, *, #144, .F. ) ;
#94 = CC_DESIGN_PERSON_AND_ORGANIZATION_ASSIGNMENT ( #29, #121, ( #71 ) ) ;
#95 = ORIENTED_EDGE ( 'NONE', *, *, #8, .F. ) ;
#96 = VERTEX_POINT ( 'NONE', #191 ) ;
#97 = CARTESIAN_POINT ( 'NONE',  ( -38.10000000000001600, -12.70000000000000300, 0.7600000000000000100 ) ) ;
#98 = ADVANCED_FACE ( 'NONE', ( #237 ), #226, .F. ) ;
#99 = PLANE ( 'NONE',  #10 ) ;
#100 = FACE_OUTER_BOUND ( 'NONE', #68, .T. ) ;
#101 = CARTESIAN_POINT ( 'NONE',  ( -38.10000000000001600, -12.70000000000000300, -0.7600000000000000100 ) ) ;
#102 = SECURITY_CLASSIFICATION_LEVEL ( 'unclassified' ) ;
#103 = PLANE ( 'NONE',  #55 ) ;
#104 = CARTESIAN_POINT ( 'NONE',  ( 38.09999999999998700, 12.70000000000001000, 0.7600000000000000100 ) ) ;
#105 = PRODUCT ( 'Web Model 59280_59281', 'Web Model 59280_59281', '', ( #123 ) ) ;
#106 = PERSON_AND_ORGANIZATION_ROLE ( 'creator' ) ;
#107 = LINE ( 'NONE', #42, #138 ) ;
#108 = CC_DESIGN_DATE_AND_TIME_ASSIGNMENT ( #163, #59, ( #201 ) ) ;
#109 = APPROVAL_DATE_TIME ( #112, #131 ) ;
#110 = EDGE_CURVE ( 'NONE', #23, #221, #107, .T. ) ;
#111 = LINE ( 'NONE', #120, #48 ) ;
#112 = DATE_AND_TIME ( #158, #205 ) ;
#113 = ORIENTED_EDGE ( 'NONE', *, *, #116, .F. ) ;
#114 = PRODUCT_DEFINITION_FORMATION_WITH_SPECIFIED_SOURCE ( 'ANY', '', #105, .NOT_KNOWN. ) ;
#115 = CARTESIAN_POINT ( 'NONE',  ( -38.10000000000001600, -12.70000000000000300, 0.7600000000000000100 ) ) ;
#116 = EDGE_CURVE ( 'NONE', #96, #235, #30, .T. ) ;
#117 = DIRECTION ( 'NONE',  ( -0.0000000000000000000, -0.0000000000000000000, -1.000000000000000000 ) ) ;
#118 = ORIENTED_EDGE ( 'NONE', *, *, #110, .F. ) ;
#119 = CARTESIAN_POINT ( 'NONE',  ( 38.09999999999998700, 12.70000000000001000, -0.7600000000000000100 ) ) ;
#120 = CARTESIAN_POINT ( 'NONE',  ( 38.09999999999998700, 12.70000000000001000, -0.7600000000000000100 ) ) ;
#121 = PERSON_AND_ORGANIZATION_ROLE ( 'classification_officer' ) ;
#122 = DATE_AND_TIME ( #164, #217 ) ;
#123 = MECHANICAL_CONTEXT ( 'NONE', #47, 'mechanical' ) ;
#124 = ORIENTED_EDGE ( 'NONE', *, *, #44, .T. ) ;
#125 = CARTESIAN_POINT ( 'NONE',  ( -38.10000000000001600, 12.69999999999999600, -0.7600000000000000100 ) ) ;
#126 = LOCAL_TIME ( 14, 48, 54.00000000000000000, #57 ) ;
#127 = CARTESIAN_POINT ( 'NONE',  ( 38.09999999999998700, -12.69999999999998500, 0.7600000000000000100 ) ) ;
#128 = ADVANCED_FACE ( 'NONE', ( #91 ), #224, .F. ) ;
#129 = ORGANIZATION ( 'UNSPECIFIED', 'UNSPECIFIED', '' ) ;
#130 = ORIENTED_EDGE ( 'NONE', *, *, #8, .T. ) ;
#131 = APPROVAL ( #66, 'UNSPECIFIED' ) ;
#132 = LINE ( 'NONE', #24, #202 ) ;
#133 = ORIENTED_EDGE ( 'NONE', *, *, #110, .T. ) ;
#134 = APPROVAL_PERSON_ORGANIZATION ( #175, #135, #140 ) ;
#135 = APPROVAL ( #31, 'UNSPECIFIED' ) ;
#136 = DIRECTION ( 'NONE',  ( 1.000000000000000000, 0.0000000000000000000, 0.0000000000000000000 ) ) ;
#137 = COORDINATED_UNIVERSAL_TIME_OFFSET ( 5, 0, .BEHIND. ) ;
#138 = VECTOR ( 'NONE', #222, 1000.000000000000000 ) ;
#139 = EDGE_LOOP ( 'NONE', ( #64, #113, #177, #38 ) ) ;
#140 = APPROVAL_ROLE ( '' ) ;
#141 = PRODUCT_RELATED_PRODUCT_CATEGORY ( 'detail', '', ( #105 ) ) ;
#142 = PERSON ( 'UNSPECIFIED', 'UNSPECIFIED', 'UNSPECIFIED', ('UNSPECIFIED'), ('UNSPECIFIED'), ('UNSPECIFIED') ) ;
#143 = UNCERTAINTY_MEASURE_WITH_UNIT (LENGTH_MEASURE( 1.000000000000000100E-005 ), #9, 'distance_accuracy_value', 'NONE');
#144 = EDGE_CURVE ( 'NONE', #96, #23, #6, .T. ) ;
#145 = FACE_OUTER_BOUND ( 'NONE', #84, .T. ) ;
#146 = PERSON_AND_ORGANIZATION ( #142, #129 ) ;
#147 = VECTOR ( 'NONE', #58, 1000.000000000000000 ) ;
#148 = EDGE_CURVE ( 'NONE', #225, #231, #180, .T. ) ;
#149 = CARTESIAN_POINT ( 'NONE',  ( 38.09999999999998700, -12.69999999999998500, 0.7600000000000000100 ) ) ;
#150 = PLANE ( 'NONE',  #174 ) ;
#151 = EDGE_CURVE ( 'NONE', #170, #231, #4, .T. ) ;
#152 = DIRECTION ( 'NONE',  ( 0.0000000000000000000, -0.0000000000000000000, 1.000000000000000000 ) ) ;
#153 = APPROVAL_PERSON_ORGANIZATION ( #182, #131, #87 ) ;
#154 = DIRECTION ( 'NONE',  ( 0.0000000000000000000, 0.0000000000000000000, 1.000000000000000000 ) ) ;
#155 = DIRECTION ( 'NONE',  ( 0.0000000000000000000, 0.0000000000000000000, -1.000000000000000000 ) ) ;
#156 = ORIENTED_EDGE ( 'NONE', *, *, #148, .F. ) ;
#157 = DIRECTION ( 'NONE',  ( 1.000000000000000000, 0.0000000000000000000, -0.0000000000000000000 ) ) ;
#158 = CALENDAR_DATE ( 2019, 28, 2 ) ;
#159 = EDGE_CURVE ( 'NONE', #23, #234, #40, .T. ) ;
#160 = ORIENTED_EDGE ( 'NONE', *, *, #44, .F. ) ;
#161 = AXIS2_PLACEMENT_3D ( 'NONE', #127, #18, #216 ) ;
#162 = CALENDAR_DATE ( 2019, 28, 2 ) ;
#163 = DATE_AND_TIME ( #3, #19 ) ;
#164 = CALENDAR_DATE ( 2019, 28, 2 ) ;
#165 = VECTOR ( 'NONE', #11, 1000.000000000000000 ) ;
#166 = CARTESIAN_POINT ( 'NONE',  ( -38.10000000000001600, 12.69999999999999600, 0.7600000000000000100 ) ) ;
#167 =( NAMED_UNIT ( * ) PLANE_ANGLE_UNIT ( ) SI_UNIT ( $, .RADIAN. ) );
#168 = APPROVAL_STATUS ( 'not_yet_approved' ) ;
#169 = DIRECTION ( 'NONE',  ( 0.0000000000000000000, 1.000000000000000000, 0.0000000000000000000 ) ) ;
#170 = VERTEX_POINT ( 'NONE', #21 ) ;
#171 = CARTESIAN_POINT ( 'NONE',  ( 38.09999999999998700, -12.69999999999998500, 0.7600000000000000100 ) ) ;
#172 = DIRECTION ( 'NONE',  ( -1.000000000000000000, -2.276539994720219300E-016, 0.0000000000000000000 ) ) ;
#173 = DIRECTION ( 'NONE',  ( 0.0000000000000000000, -0.0000000000000000000, 1.000000000000000000 ) ) ;
#174 = AXIS2_PLACEMENT_3D ( 'NONE', #97, #136, #155 ) ;
#175 = PERSON_AND_ORGANIZATION ( #142, #129 ) ;
#176 = ADVANCED_FACE ( 'NONE', ( #51 ), #150, .F. ) ;
#177 = ORIENTED_EDGE ( 'NONE', *, *, #1, .F. ) ;
#178 = ADVANCED_FACE ( 'NONE', ( #145 ), #60, .F. ) ;
#179 = VECTOR ( 'NONE', #169, 1000.000000000000000 ) ;
#180 = LINE ( 'NONE', #149, #218 ) ;
#181 = ORIENTED_EDGE ( 'NONE', *, *, #151, .F. ) ;
#182 = PERSON_AND_ORGANIZATION ( #142, #129 ) ;
#183 = EDGE_LOOP ( 'NONE', ( #196, #36, #17, #181 ) ) ;
#184 = COORDINATED_UNIVERSAL_TIME_OFFSET ( 5, 0, .BEHIND. ) ;
#185 = VECTOR ( 'NONE', #117, 1000.000000000000000 ) ;
#186 = DIRECTION ( 'NONE',  ( 1.000000000000000000, 2.276539994720219300E-016, -0.0000000000000000000 ) ) ;
#187 = PRODUCT_DEFINITION_SHAPE ( 'NONE', 'NONE',  #201 ) ;
#188 = PERSON_AND_ORGANIZATION_ROLE ( 'design_supplier' ) ;
#189 = CARTESIAN_POINT ( 'NONE',  ( 38.09999999999998700, -12.69999999999998500, 0.7600000000000000100 ) ) ;
#190 = CARTESIAN_POINT ( 'NONE',  ( 38.09999999999998700, -12.69999999999998500, 0.7600000000000000100 ) ) ;
#191 = CARTESIAN_POINT ( 'NONE',  ( 38.09999999999998700, 12.70000000000001000, 0.7600000000000000100 ) ) ;
#192 = VECTOR ( 'NONE', #28, 1000.000000000000000 ) ;
#193 = DESIGN_CONTEXT ( 'detailed design', #207, 'design' ) ;
#194 = EDGE_LOOP ( 'NONE', ( #2, #160, #72, #133 ) ) ;
#195 = SHAPE_DEFINITION_REPRESENTATION ( #187, #78 ) ;
#196 = ORIENTED_EDGE ( 'NONE', *, *, #79, .F. ) ;
#197 = LINE ( 'NONE', #101, #192 ) ;
#198 = AXIS2_PLACEMENT_3D ( 'NONE', #86, #154, #212 ) ;
#199 = DATE_AND_TIME ( #162, #37 ) ;
#200 = LINE ( 'NONE', #171, #165 ) ;
#201 = PRODUCT_DEFINITION ( 'UNKNOWN', '', #114, #193 ) ;
#202 = VECTOR ( 'NONE', #61, 1000.000000000000000 ) ;
#203 = DIRECTION ( 'NONE',  ( -0.0000000000000000000, -0.0000000000000000000, -1.000000000000000000 ) ) ;
#204 = CARTESIAN_POINT ( 'NONE',  ( 38.09999999999998700, -12.69999999999998500, -0.7600000000000000100 ) ) ;
#205 = LOCAL_TIME ( 14, 48, 54.00000000000000000, #137 ) ;
#206 = CARTESIAN_POINT ( 'NONE',  ( 0.0000000000000000000, 0.0000000000000000000, 0.7600000000000000100 ) ) ;
#207 = APPLICATION_CONTEXT ( 'configuration controlled 3d designs of mechanical parts and assemblies' ) ;
#208 = DIRECTION ( 'NONE',  ( -1.000000000000000000, -1.821231995776175700E-016, 0.0000000000000000000 ) ) ;
#209 = CARTESIAN_POINT ( 'NONE',  ( 38.09999999999998700, -12.69999999999998500, -0.7600000000000000100 ) ) ;
#210 = PERSON_AND_ORGANIZATION ( #142, #129 ) ;
#211 = CARTESIAN_POINT ( 'NONE',  ( 38.09999999999998700, -12.69999999999998500, 0.7600000000000000100 ) ) ;
#212 = DIRECTION ( 'NONE',  ( 1.000000000000000000, 0.0000000000000000000, 0.0000000000000000000 ) ) ;
#213 = EDGE_LOOP ( 'NONE', ( #7, #130, #34, #89 ) ) ;
#214 = AXIS2_PLACEMENT_3D ( 'NONE', #189, #227, #172 ) ;
#215 = ADVANCED_FACE ( 'NONE', ( #90 ), #99, .T. ) ;
#216 = DIRECTION ( 'NONE',  ( 0.0000000000000000000, 0.0000000000000000000, 1.000000000000000000 ) ) ;
#217 = LOCAL_TIME ( 14, 48, 54.00000000000000000, #184 ) ;
#218 = VECTOR ( 'NONE', #203, 1000.000000000000000 ) ;
#219 = APPROVAL ( #168, 'UNSPECIFIED' ) ;
#220 = PERSON_AND_ORGANIZATION ( #142, #129 ) ;
#221 = VERTEX_POINT ( 'NONE', #125 ) ;
#222 = DIRECTION ( 'NONE',  ( -0.0000000000000000000, -0.0000000000000000000, -1.000000000000000000 ) ) ;
#223 = CC_DESIGN_APPROVAL ( #131, ( #114 ) ) ;
#224 = PLANE ( 'NONE',  #69 ) ;
#225 = VERTEX_POINT ( 'NONE', #190 ) ;
#226 = PLANE ( 'NONE',  #161 ) ;
#227 = DIRECTION ( 'NONE',  ( -2.276539994720219300E-016, 1.000000000000000000, 0.0000000000000000000 ) ) ;
#228 = EDGE_CURVE ( 'NONE', #231, #235, #62, .T. ) ;
#229 = PERSON_AND_ORGANIZATION_ROLE ( 'design_owner' ) ;
#230 = VECTOR ( 'NONE', #77, 1000.000000000000000 ) ;
#231 = VERTEX_POINT ( 'NONE', #209 ) ;
#232 = DIRECTION ( 'NONE',  ( 1.821231995776175500E-016, -1.000000000000000000, 0.0000000000000000000 ) ) ;
#233 = APPROVAL_DATE_TIME ( #199, #135 ) ;
#234 = VERTEX_POINT ( 'NONE', #49 ) ;
#235 = VERTEX_POINT ( 'NONE', #119 ) ;
#236 = CALENDAR_DATE ( 2019, 28, 2 ) ;
#237 = FACE_OUTER_BOUND ( 'NONE', #139, .T. ) ;
ENDSEC;
END-ISO-10303-21;
