ISO-10303-21;
HEADER;
FILE_DESCRIPTION (( 'STEP AP214' ),
    '1' );
FILE_NAME ('3499-E0W.STEP',
    '2010-12-06T18:27:43',
    ( 'Admin' ),
    ( 'Thorlabs, Inc.' ),
    'SwSTEP 2.0',
    'SolidWorks 2009',
    '' );
FILE_SCHEMA (( 'AUTOMOTIVE_DESIGN' ));
ENDSEC;

DATA;
#1 = ORIENTED_EDGE ( 'NONE', *, *, #4, .T. ) ;
#2 = ADVANCED_FACE ( 'NONE', ( #91 ), #120, .T. ) ;
#3 = EDGE_CURVE ( 'NONE', #18, #62, #86, .T. ) ;
#4 = EDGE_CURVE ( 'NONE', #8, #74, #116, .T. ) ;
#5 = ORIENTED_EDGE ( 'NONE', *, *, #20, .T. ) ;
#6 = ORIENTED_EDGE ( 'NONE', *, *, #19, .F. ) ;
#7 = ORIENTED_EDGE ( 'NONE', *, *, #76, .F. ) ;
#8 = VERTEX_POINT ( 'NONE', #112 ) ;
#9 = ADVANCED_FACE ( 'NONE', ( #111 ), #222, .T. ) ;
#10 = ORIENTED_EDGE ( 'NONE', *, *, #11, .T. ) ;
#11 = EDGE_CURVE ( 'NONE', #18, #8, #173, .T. ) ;
#12 = EDGE_CURVE ( 'NONE', #8, #18, #148, .T. ) ;
#13 = ADVANCED_FACE ( 'NONE', ( #127 ), #168, .F. ) ;
#14 = ORIENTED_EDGE ( 'NONE', *, *, #12, .F. ) ;
#15 = VERTEX_POINT ( 'NONE', #169 ) ;
#16 = ORIENTED_EDGE ( 'NONE', *, *, #69, .F. ) ;
#17 = ORIENTED_EDGE ( 'NONE', *, *, #3, .F. ) ;
#18 = VERTEX_POINT ( 'NONE', #221 ) ;
#19 = EDGE_CURVE ( 'NONE', #62, #21, #220, .T. ) ;
#20 = EDGE_CURVE ( 'NONE', #74, #15, #146, .T. ) ;
#21 = VERTEX_POINT ( 'NONE', #142 ) ;
#22 = EDGE_LOOP ( 'NONE', ( #23, #33, #35 ) ) ;
#23 = ORIENTED_EDGE ( 'NONE', *, *, #28, .F. ) ;
#24 = DIRECTION ( 'NONE',  ( 0.0000000000000000000, 0.0000000000000000000, 1.000000000000000000 ) ) ;
#25 = CARTESIAN_POINT ( 'NONE',  ( 0.0000000000000000000, 0.0000000000000000000, 0.0000000000000000000 ) ) ;
#26 = ADVANCED_FACE ( 'NONE', ( #141 ), #159, .F. ) ;
#27 = ORIENTED_EDGE ( 'NONE', *, *, #29, .F. ) ;
#28 = EDGE_CURVE ( 'NONE', #8, #49, #219, .T. ) ;
#29 = EDGE_CURVE ( 'NONE', #18, #49, #210, .T. ) ;
#30 = ORIENTED_EDGE ( 'NONE', *, *, #28, .T. ) ;
#31 = EDGE_LOOP ( 'NONE', ( #14, #30, #27 ) ) ;
#32 = EDGE_CURVE ( 'NONE', #15, #21, #204, .T. ) ;
#33 = ORIENTED_EDGE ( 'NONE', *, *, #11, .F. ) ;
#34 = ORIENTED_EDGE ( 'NONE', *, *, #69, .T. ) ;
#35 = ORIENTED_EDGE ( 'NONE', *, *, #29, .T. ) ;
#36 = ORIENTED_EDGE ( 'NONE', *, *, #20, .F. ) ;
#37 = ADVANCED_FACE ( 'NONE', ( #205 ), #259, .T. ) ;
#38 = EDGE_LOOP ( 'NONE', ( #36, #48, #60, #50 ) ) ;
#39 = ORIENTED_EDGE ( 'NONE', *, *, #12, .T. ) ;
#40 = ORIENTED_EDGE ( 'NONE', *, *, #3, .T. ) ;
#41 = EDGE_LOOP ( 'NONE', ( #43, #39, #40, #42 ) ) ;
#42 = ORIENTED_EDGE ( 'NONE', *, *, #47, .F. ) ;
#43 = ORIENTED_EDGE ( 'NONE', *, *, #4, .F. ) ;
#44 = ADVANCED_FACE ( 'NONE', ( #257 ), #237, .T. ) ;
#45 = ORIENTED_EDGE ( 'NONE', *, *, #46, .F. ) ;
#46 = EDGE_CURVE ( 'NONE', #78, #64, #232, .T. ) ;
#47 = EDGE_CURVE ( 'NONE', #74, #62, #227, .T. ) ;
#48 = ORIENTED_EDGE ( 'NONE', *, *, #47, .T. ) ;
#49 = VERTEX_POINT ( 'NONE', #334 ) ;
#50 = ORIENTED_EDGE ( 'NONE', *, *, #32, .F. ) ;
#51 = ADVANCED_FACE ( 'NONE', ( #372 ), #285, .T. ) ;
#52 = ORIENTED_EDGE ( 'NONE', *, *, #46, .T. ) ;
#53 = ORIENTED_EDGE ( 'NONE', *, *, #67, .F. ) ;
#54 = EDGE_LOOP ( 'NONE', ( #52, #56 ) ) ;
#55 = ORIENTED_EDGE ( 'NONE', *, *, #32, .T. ) ;
#56 = ORIENTED_EDGE ( 'NONE', *, *, #75, .T. ) ;
#57 = ADVANCED_FACE ( 'NONE', ( #289 ), #341, .T. ) ;
#58 = CLOSED_SHELL ( 'NONE', ( #77, #9, #2, #13, #26, #44, #37, #51, #57 ) ) ;
#59 = EDGE_LOOP ( 'NONE', ( #53, #45, #34, #55 ) ) ;
#60 = ORIENTED_EDGE ( 'NONE', *, *, #19, .T. ) ;
#61 = EDGE_LOOP ( 'NONE', ( #68, #70, #63, #16 ) ) ;
#62 = VERTEX_POINT ( 'NONE', #340 ) ;
#63 = ORIENTED_EDGE ( 'NONE', *, *, #66, .T. ) ;
#64 = VERTEX_POINT ( 'NONE', #357 ) ;
#65 = DIRECTION ( 'NONE',  ( 1.000000000000000000, 0.0000000000000000000, 0.0000000000000000000 ) ) ;
#66 = EDGE_CURVE ( 'NONE', #21, #15, #355, .T. ) ;
#67 = EDGE_CURVE ( 'NONE', #64, #21, #356, .T. ) ;
#68 = ORIENTED_EDGE ( 'NONE', *, *, #75, .F. ) ;
#69 = EDGE_CURVE ( 'NONE', #78, #15, #327, .T. ) ;
#70 = ORIENTED_EDGE ( 'NONE', *, *, #67, .T. ) ;
#71 = ORIENTED_EDGE ( 'NONE', *, *, #76, .T. ) ;
#72 = ORIENTED_EDGE ( 'NONE', *, *, #66, .F. ) ;
#73 = EDGE_LOOP ( 'NONE', ( #10, #1, #7, #17 ) ) ;
#74 = VERTEX_POINT ( 'NONE', #323 ) ;
#75 = EDGE_CURVE ( 'NONE', #64, #78, #322, .T. ) ;
#76 = EDGE_CURVE ( 'NONE', #62, #74, #316, .T. ) ;
#77 = ADVANCED_FACE ( 'NONE', ( #311 ), #389, .T. ) ;
#78 = VERTEX_POINT ( 'NONE', #388 ) ;
#79 = EDGE_LOOP ( 'NONE', ( #71, #5, #72, #6 ) ) ;
#80 = MANIFOLD_SOLID_BREP ( 'NONE', #58 ) ;
#81 =( NAMED_UNIT ( * ) SI_UNIT ( $, .STERADIAN. ) SOLID_ANGLE_UNIT ( ) );
#82 = COLOUR_RGB ( '',0.7529411764705882200, 0.7529411764705882200, 0.7529411764705882200 ) ;
#83 = SURFACE_STYLE_FILL_AREA ( #92 ) ;
#84 = VECTOR ( 'NONE', #117, 999.9999999999998900 ) ;
#85 = CARTESIAN_POINT ( 'NONE',  ( 0.0000000000000000000, 6.350000000000001400, 2.029487480991427200 ) ) ;
#86 = LINE ( 'NONE', #85, #84 ) ;
#87 = DIRECTION ( 'NONE',  ( 0.0000000000000000000, 1.000000000000000000, 2.731847993664262700E-016 ) ) ;
#88 = DIRECTION ( 'NONE',  ( -0.0000000000000000000, 3.061616997868383100E-016, -1.000000000000000000 ) ) ;
#89 = AXIS2_PLACEMENT_3D ( 'NONE', #25, #24, #65 ) ;
#90 =( LENGTH_UNIT ( ) NAMED_UNIT ( * ) SI_UNIT ( .MILLI., .METRE. ) );
#91 = FACE_OUTER_BOUND ( 'NONE', #73, .T. ) ;
#92 = FILL_AREA_STYLE ('',( #100 ) ) ;
#93 = PRESENTATION_STYLE_ASSIGNMENT (( #124 ) ) ;
#94 = MECHANICAL_DESIGN_GEOMETRIC_PRESENTATION_REPRESENTATION (  '', ( #126 ), #121 ) ;
#95 = PRESENTATION_LAYER_ASSIGNMENT (  '', '', ( #126 ) ) ;
#96 = UNCERTAINTY_MEASURE_WITH_UNIT (LENGTH_MEASURE( 1.000000000000000100E-005 ), #99, 'distance_accuracy_value', 'NONE');
#97 =( NAMED_UNIT ( * ) SI_UNIT ( $, .STERADIAN. ) SOLID_ANGLE_UNIT ( ) );
#98 =( NAMED_UNIT ( * ) PLANE_ANGLE_UNIT ( ) SI_UNIT ( $, .RADIAN. ) );
#99 =( LENGTH_UNIT ( ) NAMED_UNIT ( * ) SI_UNIT ( .MILLI., .METRE. ) );
#100 = FILL_AREA_STYLE_COLOUR ( '', #82 ) ;
#101 = MECHANICAL_DESIGN_GEOMETRIC_PRESENTATION_REPRESENTATION (  '', ( #103 ), #164 ) ;
#102 = PRESENTATION_LAYER_ASSIGNMENT (  '', '', ( #103 ) ) ;
#103 = STYLED_ITEM ( 'NONE', ( #104 ), #9 ) ;
#104 = PRESENTATION_STYLE_ASSIGNMENT (( #105 ) ) ;
#105 = SURFACE_STYLE_USAGE ( .BOTH. , #106 ) ;
#106 = SURFACE_SIDE_STYLE ('',( #107 ) ) ;
#107 = SURFACE_STYLE_FILL_AREA ( #108 ) ;
#108 = FILL_AREA_STYLE ('',( #110 ) ) ;
#109 = COLOUR_RGB ( '',0.7529411764705882200, 0.7529411764705882200, 0.7529411764705882200 ) ;
#110 = FILL_AREA_STYLE_COLOUR ( '', #109 ) ;
#111 = FACE_OUTER_BOUND ( 'NONE', #79, .T. ) ;
#112 = CARTESIAN_POINT ( 'NONE',  ( 7.603064855357730900E-016, -6.208578643762694900, 2.170908837228732000 ) ) ;
#113 = DIRECTION ( 'NONE',  ( 8.659274570719302400E-017, -0.7071067811865430200, -0.7071067811865521200 ) ) ;
#114 = VECTOR ( 'NONE', #113, 999.9999999999998900 ) ;
#115 = CARTESIAN_POINT ( 'NONE',  ( 7.776250346772096400E-016, -6.349999999999999600, 2.029487480991423600 ) ) ;
#116 = LINE ( 'NONE', #115, #114 ) ;
#117 = DIRECTION ( 'NONE',  ( 0.0000000000000000000, 0.7071067811865434600, -0.7071067811865516800 ) ) ;
#118 = CARTESIAN_POINT ( 'NONE',  ( 0.0000000000000000000, 6.188495879991342500E-016, 2.029487480991425400 ) ) ;
#119 = AXIS2_PLACEMENT_3D ( 'NONE', #118, #88, #87 ) ;
#120 = CONICAL_SURFACE ( 'NONE', #119, 6.350000000000000500, 0.7853981633974420600 ) ;
#121 =( GEOMETRIC_REPRESENTATION_CONTEXT ( 3 ) GLOBAL_UNCERTAINTY_ASSIGNED_CONTEXT ( ( #123 ) ) GLOBAL_UNIT_ASSIGNED_CONTEXT ( ( #90, #122, #81 ) ) REPRESENTATION_CONTEXT ( 'NONE', 'WORKASPACE' ) );
#122 =( NAMED_UNIT ( * ) PLANE_ANGLE_UNIT ( ) SI_UNIT ( $, .RADIAN. ) );
#123 = UNCERTAINTY_MEASURE_WITH_UNIT (LENGTH_MEASURE( 1.000000000000000100E-005 ), #90, 'distance_accuracy_value', 'NONE');
#124 = SURFACE_STYLE_USAGE ( .BOTH. , #125 ) ;
#125 = SURFACE_SIDE_STYLE ('',( #83 ) ) ;
#126 = STYLED_ITEM ( 'NONE', ( #93 ), #2 ) ;
#127 = FACE_OUTER_BOUND ( 'NONE', #31, .T. ) ;
#128 = DIRECTION ( 'NONE',  ( 0.0000000000000000000, 1.000000000000000000, 2.794075062123208900E-016 ) ) ;
#129 = PRESENTATION_LAYER_ASSIGNMENT (  '', '', ( #130 ) ) ;
#130 = STYLED_ITEM ( 'NONE', ( #131 ), #26 ) ;
#131 = PRESENTATION_STYLE_ASSIGNMENT (( #132 ) ) ;
#132 = SURFACE_STYLE_USAGE ( .BOTH. , #133 ) ;
#133 = SURFACE_SIDE_STYLE ('',( #134 ) ) ;
#134 = SURFACE_STYLE_FILL_AREA ( #135 ) ;
#135 = FILL_AREA_STYLE ('',( #193 ) ) ;
#136 = COLOUR_RGB ( '',0.7529411764705882200, 0.7529411764705882200, 0.7529411764705882200 ) ;
#137 = AXIS2_PLACEMENT_3D ( 'NONE', #163, #151, #150 ) ;
#138 = PRESENTATION_STYLE_ASSIGNMENT (( #139 ) ) ;
#139 = SURFACE_STYLE_USAGE ( .BOTH. , #140 ) ;
#140 = SURFACE_SIDE_STYLE ('',( #156 ) ) ;
#141 = FACE_OUTER_BOUND ( 'NONE', #22, .T. ) ;
#142 = CARTESIAN_POINT ( 'NONE',  ( 0.0000000000000000000, 6.350000000000000500, -1.608578643762689400 ) ) ;
#143 = DIRECTION ( 'NONE',  ( -0.0000000000000000000, 3.061616997868383100E-016, -1.000000000000000000 ) ) ;
#144 = VECTOR ( 'NONE', #143, 1000.000000000000000 ) ;
#145 = CARTESIAN_POINT ( 'NONE',  ( 7.776250346772095400E-016, -6.349999999999997900, -1.750000000000002000 ) ) ;
#146 = LINE ( 'NONE', #145, #144 ) ;
#147 = DIRECTION ( 'NONE',  ( -0.0000000000000000000, 3.061616997868383100E-016, -1.000000000000000000 ) ) ;
#148 = CIRCLE ( 'NONE', #175, 6.208578643762692200 ) ;
#149 = CARTESIAN_POINT ( 'NONE',  ( 0.0000000000000000000, 1.775983899502544700E-015, -1.750000000000000000 ) ) ;
#150 = DIRECTION ( 'NONE',  ( 0.0000000000000000000, 1.000000000000000000, 2.794075062123208900E-016 ) ) ;
#151 = DIRECTION ( 'NONE',  ( -0.0000000000000000000, 3.061616997868383100E-016, -1.000000000000000000 ) ) ;
#152 = AXIS2_PLACEMENT_3D ( 'NONE', #149, #147, #170 ) ;
#153 = UNCERTAINTY_MEASURE_WITH_UNIT (LENGTH_MEASURE( 1.000000000000000100E-005 ), #198, 'distance_accuracy_value', 'NONE');
#154 =( NAMED_UNIT ( * ) SI_UNIT ( $, .STERADIAN. ) SOLID_ANGLE_UNIT ( ) );
#155 =( NAMED_UNIT ( * ) PLANE_ANGLE_UNIT ( ) SI_UNIT ( $, .RADIAN. ) );
#156 = SURFACE_STYLE_FILL_AREA ( #157 ) ;
#157 = FILL_AREA_STYLE ('',( #158 ) ) ;
#158 = FILL_AREA_STYLE_COLOUR ( '', #177 ) ;
#159 = SPHERICAL_SURFACE ( 'NONE', #181, 46.00000000000000000 ) ;
#160 =( GEOMETRIC_REPRESENTATION_CONTEXT ( 3 ) GLOBAL_UNCERTAINTY_ASSIGNED_CONTEXT ( ( #153 ) ) GLOBAL_UNIT_ASSIGNED_CONTEXT ( ( #198, #155, #154 ) ) REPRESENTATION_CONTEXT ( 'NONE', 'WORKASPACE' ) );
#161 =( NAMED_UNIT ( * ) SI_UNIT ( $, .STERADIAN. ) SOLID_ANGLE_UNIT ( ) );
#162 =( NAMED_UNIT ( * ) PLANE_ANGLE_UNIT ( ) SI_UNIT ( $, .RADIAN. ) );
#163 = CARTESIAN_POINT ( 'NONE',  ( 0.0000000000000000000, 5.755517851873592300E-016, 2.170908837228736000 ) ) ;
#164 =( GEOMETRIC_REPRESENTATION_CONTEXT ( 3 ) GLOBAL_UNCERTAINTY_ASSIGNED_CONTEXT ( ( #96 ) ) GLOBAL_UNIT_ASSIGNED_CONTEXT ( ( #99, #98, #97 ) ) REPRESENTATION_CONTEXT ( 'NONE', 'WORKASPACE' ) );
#165 = MECHANICAL_DESIGN_GEOMETRIC_PRESENTATION_REPRESENTATION (  '', ( #167 ), #171 ) ;
#166 = PRESENTATION_LAYER_ASSIGNMENT (  '', '', ( #167 ) ) ;
#167 = STYLED_ITEM ( 'NONE', ( #138 ), #13 ) ;
#168 = SPHERICAL_SURFACE ( 'NONE', #214, 46.00000000000000000 ) ;
#169 = CARTESIAN_POINT ( 'NONE',  ( 7.776250346772094400E-016, -6.349999999999997000, -1.608578643762693400 ) ) ;
#170 = DIRECTION ( 'NONE',  ( 0.0000000000000000000, 1.000000000000000000, 3.073328992872296400E-016 ) ) ;
#171 =( GEOMETRIC_REPRESENTATION_CONTEXT ( 3 ) GLOBAL_UNCERTAINTY_ASSIGNED_CONTEXT ( ( #197 ) ) GLOBAL_UNIT_ASSIGNED_CONTEXT ( ( #172, #162, #161 ) ) REPRESENTATION_CONTEXT ( 'NONE', 'WORKASPACE' ) );
#172 =( LENGTH_UNIT ( ) NAMED_UNIT ( * ) SI_UNIT ( .MILLI., .METRE. ) );
#173 = CIRCLE ( 'NONE', #137, 6.208578643762692200 ) ;
#174 = DIRECTION ( 'NONE',  ( -0.0000000000000000000, 3.061616997868383100E-016, -1.000000000000000000 ) ) ;
#175 = AXIS2_PLACEMENT_3D ( 'NONE', #176, #174, #128 ) ;
#176 = CARTESIAN_POINT ( 'NONE',  ( 0.0000000000000000000, 5.755517851873592300E-016, 2.170908837228736000 ) ) ;
#177 = COLOUR_RGB ( '',0.7529411764705882200, 0.7529411764705882200, 0.7529411764705882200 ) ;
#178 = DIRECTION ( 'NONE',  ( 0.0000000000000000000, 1.000000000000000000, 3.016910393003142900E-016 ) ) ;
#179 = DIRECTION ( 'NONE',  ( 1.000000000000000000, 0.0000000000000000000, -0.0000000000000000000 ) ) ;
#180 = CARTESIAN_POINT ( 'NONE',  ( 0.0000000000000000000, -2.752994890692711900E-016, 47.75000000000000000 ) ) ;
#181 = AXIS2_PLACEMENT_3D ( 'NONE', #180, #179, #178 ) ;
#182 =( LENGTH_UNIT ( ) NAMED_UNIT ( * ) SI_UNIT ( .MILLI., .METRE. ) );
#183 = MECHANICAL_DESIGN_GEOMETRIC_PRESENTATION_REPRESENTATION (  '', ( #185 ), #260 ) ;
#184 = PRESENTATION_LAYER_ASSIGNMENT (  '', '', ( #185 ) ) ;
#185 = STYLED_ITEM ( 'NONE', ( #186 ), #37 ) ;
#186 = PRESENTATION_STYLE_ASSIGNMENT (( #187 ) ) ;
#187 = SURFACE_STYLE_USAGE ( .BOTH. , #188 ) ;
#188 = SURFACE_SIDE_STYLE ('',( #189 ) ) ;
#189 = SURFACE_STYLE_FILL_AREA ( #190 ) ;
#190 = FILL_AREA_STYLE ('',( #191 ) ) ;
#191 = FILL_AREA_STYLE_COLOUR ( '', #192 ) ;
#192 = COLOUR_RGB ( '',0.7529411764705882200, 0.7529411764705882200, 0.7529411764705882200 ) ;
#193 = FILL_AREA_STYLE_COLOUR ( '', #136 ) ;
#194 = DIRECTION ( 'NONE',  ( -0.0000000000000000000, 3.061616997868383100E-016, -1.000000000000000000 ) ) ;
#195 = VECTOR ( 'NONE', #194, 1000.000000000000000 ) ;
#196 = CARTESIAN_POINT ( 'NONE',  ( 0.0000000000000000000, 6.350000000000001400, -1.749999999999998000 ) ) ;
#197 = UNCERTAINTY_MEASURE_WITH_UNIT (LENGTH_MEASURE( 1.000000000000000100E-005 ), #172, 'distance_accuracy_value', 'NONE');
#198 =( LENGTH_UNIT ( ) NAMED_UNIT ( * ) SI_UNIT ( .MILLI., .METRE. ) );
#199 = MECHANICAL_DESIGN_GEOMETRIC_PRESENTATION_REPRESENTATION (  '', ( #130 ), #160 ) ;
#200 = DIRECTION ( 'NONE',  ( 0.0000000000000000000, 1.000000000000000000, 3.073328992872296900E-016 ) ) ;
#201 = DIRECTION ( 'NONE',  ( -0.0000000000000000000, 3.061616997868383100E-016, -1.000000000000000000 ) ) ;
#202 = CARTESIAN_POINT ( 'NONE',  ( 0.0000000000000000000, 1.732686096690770200E-015, -1.608578643762691400 ) ) ;
#203 = AXIS2_PLACEMENT_3D ( 'NONE', #202, #201, #200 ) ;
#204 = CIRCLE ( 'NONE', #203, 6.349999999999998800 ) ;
#205 = FACE_OUTER_BOUND ( 'NONE', #38, .T. ) ;
#206 = DIRECTION ( 'NONE',  ( 0.0000000000000000000, 0.0000000000000000000, 1.000000000000000000 ) ) ;
#207 = DIRECTION ( 'NONE',  ( -1.000000000000000000, 0.0000000000000000000, 0.0000000000000000000 ) ) ;
#208 = CARTESIAN_POINT ( 'NONE',  ( 0.0000000000000000000, -2.752994890692711900E-016, 47.75000000000000000 ) ) ;
#209 = AXIS2_PLACEMENT_3D ( 'NONE', #208, #207, #206 ) ;
#210 = CIRCLE ( 'NONE', #209, 46.00000000000000000 ) ;
#211 = DIRECTION ( 'NONE',  ( 0.0000000000000000000, 1.000000000000000000, 3.016910393003142900E-016 ) ) ;
#212 = DIRECTION ( 'NONE',  ( 1.000000000000000000, 0.0000000000000000000, -0.0000000000000000000 ) ) ;
#213 = CARTESIAN_POINT ( 'NONE',  ( 0.0000000000000000000, -2.752994890692711900E-016, 47.75000000000000000 ) ) ;
#214 = AXIS2_PLACEMENT_3D ( 'NONE', #213, #212, #211 ) ;
#215 = DIRECTION ( 'NONE',  ( -1.224606353822377300E-016, 1.000000000000000000, 0.0000000000000000000 ) ) ;
#216 = DIRECTION ( 'NONE',  ( 1.000000000000000000, 1.224606353822377300E-016, 3.749275628560213600E-032 ) ) ;
#217 = CARTESIAN_POINT ( 'NONE',  ( 0.0000000000000000000, -2.752994890692711900E-016, 47.75000000000000000 ) ) ;
#218 = AXIS2_PLACEMENT_3D ( 'NONE', #217, #216, #215 ) ;
#219 = CIRCLE ( 'NONE', #218, 46.00000000000000000 ) ;
#220 = LINE ( 'NONE', #196, #195 ) ;
#221 = CARTESIAN_POINT ( 'NONE',  ( 0.0000000000000000000, 6.208578643762710800, 2.170908837228733700 ) ) ;
#222 = CYLINDRICAL_SURFACE ( 'NONE', #152, 6.349999999999999600 ) ;
#223 = DIRECTION ( 'NONE',  ( 0.0000000000000000000, 1.000000000000000000, 2.731847993664262700E-016 ) ) ;
#224 = DIRECTION ( 'NONE',  ( -0.0000000000000000000, 3.061616997868383100E-016, -1.000000000000000000 ) ) ;
#225 = CARTESIAN_POINT ( 'NONE',  ( 0.0000000000000000000, 6.188495879991342500E-016, 2.029487480991425400 ) ) ;
#226 = AXIS2_PLACEMENT_3D ( 'NONE', #225, #224, #223 ) ;
#227 = CIRCLE ( 'NONE', #226, 6.350000000000000500 ) ;
#228 = DIRECTION ( 'NONE',  ( 0.0000000000000000000, 1.000000000000000000, 3.143334444888611200E-016 ) ) ;
#229 = DIRECTION ( 'NONE',  ( -0.0000000000000000000, 3.061616997868383100E-016, -1.000000000000000000 ) ) ;
#230 = CARTESIAN_POINT ( 'NONE',  ( 0.0000000000000000000, 1.775983899502545100E-015, -1.750000000000000900 ) ) ;
#231 = AXIS2_PLACEMENT_3D ( 'NONE', #230, #229, #228 ) ;
#232 = CIRCLE ( 'NONE', #231, 6.208578643762689500 ) ;
#233 = DIRECTION ( 'NONE',  ( 0.0000000000000000000, 1.000000000000000000, 2.731847993664262700E-016 ) ) ;
#234 = DIRECTION ( 'NONE',  ( -0.0000000000000000000, 3.061616997868383100E-016, -1.000000000000000000 ) ) ;
#235 = CARTESIAN_POINT ( 'NONE',  ( 0.0000000000000000000, 6.188495879991342500E-016, 2.029487480991425400 ) ) ;
#236 = AXIS2_PLACEMENT_3D ( 'NONE', #235, #234, #233 ) ;
#237 = CONICAL_SURFACE ( 'NONE', #236, 6.350000000000000500, 0.7853981633974420600 ) ;
#238 =( NAMED_UNIT ( * ) PLANE_ANGLE_UNIT ( ) SI_UNIT ( $, .RADIAN. ) );
#239 =( GEOMETRIC_REPRESENTATION_CONTEXT ( 3 ) GLOBAL_UNCERTAINTY_ASSIGNED_CONTEXT ( ( #240 ) ) GLOBAL_UNIT_ASSIGNED_CONTEXT ( ( #243, #242, #241 ) ) REPRESENTATION_CONTEXT ( 'NONE', 'WORKASPACE' ) );
#240 = UNCERTAINTY_MEASURE_WITH_UNIT (LENGTH_MEASURE( 1.000000000000000100E-005 ), #243, 'distance_accuracy_value', 'NONE');
#241 =( NAMED_UNIT ( * ) SI_UNIT ( $, .STERADIAN. ) SOLID_ANGLE_UNIT ( ) );
#242 =( NAMED_UNIT ( * ) PLANE_ANGLE_UNIT ( ) SI_UNIT ( $, .RADIAN. ) );
#243 =( LENGTH_UNIT ( ) NAMED_UNIT ( * ) SI_UNIT ( .MILLI., .METRE. ) );
#244 = MECHANICAL_DESIGN_GEOMETRIC_PRESENTATION_REPRESENTATION (  '', ( #246 ), #239 ) ;
#245 = PRESENTATION_LAYER_ASSIGNMENT (  '', '', ( #246 ) ) ;
#246 = STYLED_ITEM ( 'NONE', ( #247 ), #44 ) ;
#247 = PRESENTATION_STYLE_ASSIGNMENT (( #248 ) ) ;
#248 = SURFACE_STYLE_USAGE ( .BOTH. , #249 ) ;
#249 = SURFACE_SIDE_STYLE ('',( #250 ) ) ;
#250 = SURFACE_STYLE_FILL_AREA ( #251 ) ;
#251 = FILL_AREA_STYLE ('',( #258 ) ) ;
#252 = COLOUR_RGB ( '',0.7529411764705882200, 0.7529411764705882200, 0.7529411764705882200 ) ;
#253 = DIRECTION ( 'NONE',  ( 0.0000000000000000000, 1.000000000000000000, 3.073328992872296400E-016 ) ) ;
#254 = DIRECTION ( 'NONE',  ( -0.0000000000000000000, 3.061616997868383100E-016, -1.000000000000000000 ) ) ;
#255 = CARTESIAN_POINT ( 'NONE',  ( 0.0000000000000000000, 1.775983899502544700E-015, -1.750000000000000000 ) ) ;
#256 = AXIS2_PLACEMENT_3D ( 'NONE', #255, #254, #253 ) ;
#257 = FACE_OUTER_BOUND ( 'NONE', #41, .T. ) ;
#258 = FILL_AREA_STYLE_COLOUR ( '', #252 ) ;
#259 = CYLINDRICAL_SURFACE ( 'NONE', #256, 6.349999999999999600 ) ;
#260 =( GEOMETRIC_REPRESENTATION_CONTEXT ( 3 ) GLOBAL_UNCERTAINTY_ASSIGNED_CONTEXT ( ( #261 ) ) GLOBAL_UNIT_ASSIGNED_CONTEXT ( ( #182, #238, #262 ) ) REPRESENTATION_CONTEXT ( 'NONE', 'WORKASPACE' ) );
#261 = UNCERTAINTY_MEASURE_WITH_UNIT (LENGTH_MEASURE( 1.000000000000000100E-005 ), #182, 'distance_accuracy_value', 'NONE');
#262 =( NAMED_UNIT ( * ) SI_UNIT ( $, .STERADIAN. ) SOLID_ANGLE_UNIT ( ) );
#263 =( LENGTH_UNIT ( ) NAMED_UNIT ( * ) SI_UNIT ( .MILLI., .METRE. ) );
#264 = MECHANICAL_DESIGN_GEOMETRIC_PRESENTATION_REPRESENTATION (  '', ( #266 ), #342 ) ;
#265 = PRESENTATION_LAYER_ASSIGNMENT (  '', '', ( #266 ) ) ;
#266 = STYLED_ITEM ( 'NONE', ( #267 ), #57 ) ;
#267 = PRESENTATION_STYLE_ASSIGNMENT (( #268 ) ) ;
#268 = SURFACE_STYLE_USAGE ( .BOTH. , #269 ) ;
#269 = SURFACE_SIDE_STYLE ('',( #270 ) ) ;
#270 = SURFACE_STYLE_FILL_AREA ( #271 ) ;
#271 = FILL_AREA_STYLE ('',( #290 ) ) ;
#272 = COLOUR_RGB ( '',0.7529411764705882200, 0.7529411764705882200, 0.7529411764705882200 ) ;
#273 = DIRECTION ( 'NONE',  ( 0.0000000000000000000, -1.000000000000000000, -3.143334444888611200E-016 ) ) ;
#274 =( GEOMETRIC_REPRESENTATION_CONTEXT ( 3 ) GLOBAL_UNCERTAINTY_ASSIGNED_CONTEXT ( ( #275 ) ) GLOBAL_UNIT_ASSIGNED_CONTEXT ( ( #301, #277, #276 ) ) REPRESENTATION_CONTEXT ( 'NONE', 'WORKASPACE' ) );
#275 = UNCERTAINTY_MEASURE_WITH_UNIT (LENGTH_MEASURE( 1.000000000000000100E-005 ), #301, 'distance_accuracy_value', 'NONE');
#276 =( NAMED_UNIT ( * ) SI_UNIT ( $, .STERADIAN. ) SOLID_ANGLE_UNIT ( ) );
#277 =( NAMED_UNIT ( * ) PLANE_ANGLE_UNIT ( ) SI_UNIT ( $, .RADIAN. ) );
#278 = FILL_AREA_STYLE ('',( #294 ) ) ;
#279 = SURFACE_STYLE_FILL_AREA ( #278 ) ;
#280 = COLOUR_RGB ( '',0.7960784313725489700, 0.8235294117647058400, 0.9372549019607843100 ) ;
#281 = ADVANCED_BREP_SHAPE_REPRESENTATION ( '3499-E0W', ( #80, #89 ), #282 ) ;
#282 =( GEOMETRIC_REPRESENTATION_CONTEXT ( 3 ) GLOBAL_UNCERTAINTY_ASSIGNED_CONTEXT ( ( #328 ) ) GLOBAL_UNIT_ASSIGNED_CONTEXT ( ( #331, #330, #329 ) ) REPRESENTATION_CONTEXT ( 'NONE', 'WORKASPACE' ) );
#283 =( NAMED_UNIT ( * ) PLANE_ANGLE_UNIT ( ) SI_UNIT ( $, .RADIAN. ) );
#284 = SURFACE_STYLE_USAGE ( .BOTH. , #343 ) ;
#285 = CONICAL_SURFACE ( 'NONE', #288, 6.208578643762689500, 0.7853981633974490600 ) ;
#286 = DIRECTION ( 'NONE',  ( 0.0000000000000000000, -3.061616997868383100E-016, 1.000000000000000000 ) ) ;
#287 = CARTESIAN_POINT ( 'NONE',  ( 0.0000000000000000000, 1.775983899502545100E-015, -1.750000000000000900 ) ) ;
#288 = AXIS2_PLACEMENT_3D ( 'NONE', #287, #286, #273 ) ;
#289 = FACE_OUTER_BOUND ( 'NONE', #54, .T. ) ;
#290 = FILL_AREA_STYLE_COLOUR ( '', #272 ) ;
#291 = STYLED_ITEM ( 'NONE', ( #295 ), #51 ) ;
#292 =( NAMED_UNIT ( * ) SI_UNIT ( $, .STERADIAN. ) SOLID_ANGLE_UNIT ( ) );
#293 = MECHANICAL_DESIGN_GEOMETRIC_PRESENTATION_REPRESENTATION (  '', ( #291 ), #373 ) ;
#294 = FILL_AREA_STYLE_COLOUR ( '', #374 ) ;
#295 = PRESENTATION_STYLE_ASSIGNMENT (( #284 ) ) ;
#296 = UNCERTAINTY_MEASURE_WITH_UNIT (LENGTH_MEASURE( 1.000000000000000100E-005 ), #299, 'distance_accuracy_value', 'NONE');
#297 =( NAMED_UNIT ( * ) SI_UNIT ( $, .STERADIAN. ) SOLID_ANGLE_UNIT ( ) );
#298 =( NAMED_UNIT ( * ) PLANE_ANGLE_UNIT ( ) SI_UNIT ( $, .RADIAN. ) );
#299 =( LENGTH_UNIT ( ) NAMED_UNIT ( * ) SI_UNIT ( .MILLI., .METRE. ) );
#300 = MECHANICAL_DESIGN_GEOMETRIC_PRESENTATION_REPRESENTATION (  '', ( #376 ), #332 ) ;
#301 =( LENGTH_UNIT ( ) NAMED_UNIT ( * ) SI_UNIT ( .MILLI., .METRE. ) );
#302 = MECHANICAL_DESIGN_GEOMETRIC_PRESENTATION_REPRESENTATION (  '', ( #304 ), #274 ) ;
#303 = PRESENTATION_LAYER_ASSIGNMENT (  '', '', ( #304 ) ) ;
#304 = STYLED_ITEM ( 'NONE', ( #305 ), #77 ) ;
#305 = PRESENTATION_STYLE_ASSIGNMENT (( #306 ) ) ;
#306 = SURFACE_STYLE_USAGE ( .BOTH. , #307 ) ;
#307 = SURFACE_SIDE_STYLE ('',( #308 ) ) ;
#308 = SURFACE_STYLE_FILL_AREA ( #309 ) ;
#309 = FILL_AREA_STYLE ('',( #317 ) ) ;
#310 = COLOUR_RGB ( '',0.7529411764705882200, 0.7529411764705882200, 0.7529411764705882200 ) ;
#311 = FACE_OUTER_BOUND ( 'NONE', #61, .T. ) ;
#312 = DIRECTION ( 'NONE',  ( 0.0000000000000000000, 1.000000000000000000, 2.731847993664262700E-016 ) ) ;
#313 = DIRECTION ( 'NONE',  ( -0.0000000000000000000, 3.061616997868383100E-016, -1.000000000000000000 ) ) ;
#314 = CARTESIAN_POINT ( 'NONE',  ( 0.0000000000000000000, 6.188495879991342500E-016, 2.029487480991425400 ) ) ;
#315 = AXIS2_PLACEMENT_3D ( 'NONE', #314, #313, #312 ) ;
#316 = CIRCLE ( 'NONE', #315, 6.350000000000000500 ) ;
#317 = FILL_AREA_STYLE_COLOUR ( '', #310 ) ;
#318 = DIRECTION ( 'NONE',  ( 0.0000000000000000000, 1.000000000000000000, 3.143334444888611200E-016 ) ) ;
#319 = DIRECTION ( 'NONE',  ( -0.0000000000000000000, 3.061616997868383100E-016, -1.000000000000000000 ) ) ;
#320 = CARTESIAN_POINT ( 'NONE',  ( 0.0000000000000000000, 1.775983899502545100E-015, -1.750000000000000900 ) ) ;
#321 = AXIS2_PLACEMENT_3D ( 'NONE', #320, #319, #318 ) ;
#322 = CIRCLE ( 'NONE', #321, 6.208578643762689500 ) ;
#323 = CARTESIAN_POINT ( 'NONE',  ( 7.776250346772096400E-016, -6.349999999999999600, 2.029487480991423600 ) ) ;
#324 = DIRECTION ( 'NONE',  ( 0.0000000000000000000, -0.7071067811865483500, 0.7071067811865468000 ) ) ;
#325 = VECTOR ( 'NONE', #324, 999.9999999999998900 ) ;
#326 = CARTESIAN_POINT ( 'NONE',  ( 0.0000000000000000000, -6.208578643762687800, -1.750000000000002900 ) ) ;
#327 = LINE ( 'NONE', #326, #325 ) ;
#328 = UNCERTAINTY_MEASURE_WITH_UNIT (LENGTH_MEASURE( 1.000000000000000100E-005 ), #331, 'distance_accuracy_value', 'NONE');
#329 =( NAMED_UNIT ( * ) SI_UNIT ( $, .STERADIAN. ) SOLID_ANGLE_UNIT ( ) );
#330 =( NAMED_UNIT ( * ) PLANE_ANGLE_UNIT ( ) SI_UNIT ( $, .RADIAN. ) );
#331 =( LENGTH_UNIT ( ) NAMED_UNIT ( * ) SI_UNIT ( .MILLI., .METRE. ) );
#332 =( GEOMETRIC_REPRESENTATION_CONTEXT ( 3 ) GLOBAL_UNCERTAINTY_ASSIGNED_CONTEXT ( ( #296 ) ) GLOBAL_UNIT_ASSIGNED_CONTEXT ( ( #299, #298, #297 ) ) REPRESENTATION_CONTEXT ( 'NONE', 'WORKASPACE' ) );
#333 = PRESENTATION_LAYER_ASSIGNMENT (  '', '', ( #291 ) ) ;
#334 = CARTESIAN_POINT ( 'NONE',  ( 0.0000000000000000000, 1.662473331491675600E-014, 1.750000000000001600 ) ) ;
#335 =( LENGTH_UNIT ( ) NAMED_UNIT ( * ) SI_UNIT ( .MILLI., .METRE. ) );
#336 = DIRECTION ( 'NONE',  ( 0.0000000000000000000, 1.000000000000000000, 3.061616997868383100E-016 ) ) ;
#337 = DIRECTION ( 'NONE',  ( -0.0000000000000000000, 3.061616997868383100E-016, -1.000000000000000000 ) ) ;
#338 = CARTESIAN_POINT ( 'NONE',  ( 0.0000000000000000000, 1.775983899502544700E-015, -1.750000000000000200 ) ) ;
#339 = AXIS2_PLACEMENT_3D ( 'NONE', #338, #337, #336 ) ;
#340 = CARTESIAN_POINT ( 'NONE',  ( 0.0000000000000000000, 6.350000000000001400, 2.029487480991427200 ) ) ;
#341 = PLANE ( 'NONE',  #339 ) ;
#342 =( GEOMETRIC_REPRESENTATION_CONTEXT ( 3 ) GLOBAL_UNCERTAINTY_ASSIGNED_CONTEXT ( ( #345 ) ) GLOBAL_UNIT_ASSIGNED_CONTEXT ( ( #263, #347, #346 ) ) REPRESENTATION_CONTEXT ( 'NONE', 'WORKASPACE' ) );
#343 = SURFACE_SIDE_STYLE ('',( #279 ) ) ;
#344 = UNCERTAINTY_MEASURE_WITH_UNIT (LENGTH_MEASURE( 1.000000000000000100E-005 ), #335, 'distance_accuracy_value', 'NONE');
#345 = UNCERTAINTY_MEASURE_WITH_UNIT (LENGTH_MEASURE( 1.000000000000000100E-005 ), #263, 'distance_accuracy_value', 'NONE');
#346 =( NAMED_UNIT ( * ) SI_UNIT ( $, .STERADIAN. ) SOLID_ANGLE_UNIT ( ) );
#347 =( NAMED_UNIT ( * ) PLANE_ANGLE_UNIT ( ) SI_UNIT ( $, .RADIAN. ) );
#348 = DIRECTION ( 'NONE',  ( 8.659274570719361600E-017, 0.7071067811865479100, 0.7071067811865472400 ) ) ;
#349 = VECTOR ( 'NONE', #348, 999.9999999999998900 ) ;
#350 = CARTESIAN_POINT ( 'NONE',  ( 7.603064855357707200E-016, 6.208578643762691300, -1.749999999999998900 ) ) ;
#351 = DIRECTION ( 'NONE',  ( 0.0000000000000000000, 1.000000000000000000, 3.073328992872296900E-016 ) ) ;
#352 = DIRECTION ( 'NONE',  ( -0.0000000000000000000, 3.061616997868383100E-016, -1.000000000000000000 ) ) ;
#353 = CARTESIAN_POINT ( 'NONE',  ( 0.0000000000000000000, 1.732686096690770200E-015, -1.608578643762691400 ) ) ;
#354 = AXIS2_PLACEMENT_3D ( 'NONE', #353, #352, #351 ) ;
#355 = CIRCLE ( 'NONE', #354, 6.349999999999998800 ) ;
#356 = LINE ( 'NONE', #350, #349 ) ;
#357 = CARTESIAN_POINT ( 'NONE',  ( 7.689657601064900300E-016, 6.208578643762691300, -1.749999999999998900 ) ) ;
#358 =( GEOMETRIC_REPRESENTATION_CONTEXT ( 3 ) GLOBAL_UNCERTAINTY_ASSIGNED_CONTEXT ( ( #359 ) ) GLOBAL_UNIT_ASSIGNED_CONTEXT ( ( #362, #361, #360 ) ) REPRESENTATION_CONTEXT ( 'NONE', 'WORKASPACE' ) );
#359 = UNCERTAINTY_MEASURE_WITH_UNIT (LENGTH_MEASURE( 1.000000000000000100E-005 ), #362, 'distance_accuracy_value', 'NONE');
#360 =( NAMED_UNIT ( * ) SI_UNIT ( $, .STERADIAN. ) SOLID_ANGLE_UNIT ( ) );
#361 =( NAMED_UNIT ( * ) PLANE_ANGLE_UNIT ( ) SI_UNIT ( $, .RADIAN. ) );
#362 =( LENGTH_UNIT ( ) NAMED_UNIT ( * ) SI_UNIT ( .MILLI., .METRE. ) );
#363 = MECHANICAL_DESIGN_GEOMETRIC_PRESENTATION_REPRESENTATION (  '', ( #365 ), #358 ) ;
#364 = PRESENTATION_LAYER_ASSIGNMENT (  '', '', ( #365 ) ) ;
#365 = STYLED_ITEM ( 'NONE', ( #366 ), #281 ) ;
#366 = PRESENTATION_STYLE_ASSIGNMENT (( #367 ) ) ;
#367 = SURFACE_STYLE_USAGE ( .BOTH. , #368 ) ;
#368 = SURFACE_SIDE_STYLE ('',( #369 ) ) ;
#369 = SURFACE_STYLE_FILL_AREA ( #370 ) ;
#370 = FILL_AREA_STYLE ('',( #371 ) ) ;
#371 = FILL_AREA_STYLE_COLOUR ( '', #280 ) ;
#372 = FACE_OUTER_BOUND ( 'NONE', #59, .T. ) ;
#373 =( GEOMETRIC_REPRESENTATION_CONTEXT ( 3 ) GLOBAL_UNCERTAINTY_ASSIGNED_CONTEXT ( ( #344 ) ) GLOBAL_UNIT_ASSIGNED_CONTEXT ( ( #335, #283, #292 ) ) REPRESENTATION_CONTEXT ( 'NONE', 'WORKASPACE' ) );
#374 = COLOUR_RGB ( '',0.7529411764705882200, 0.7529411764705882200, 0.7529411764705882200 ) ;
#375 = PRESENTATION_LAYER_ASSIGNMENT (  '', '', ( #376 ) ) ;
#376 = STYLED_ITEM ( 'NONE', ( #377 ), #80 ) ;
#377 = PRESENTATION_STYLE_ASSIGNMENT (( #378 ) ) ;
#378 = SURFACE_STYLE_USAGE ( .BOTH. , #379 ) ;
#379 = SURFACE_SIDE_STYLE ('',( #380 ) ) ;
#380 = SURFACE_STYLE_FILL_AREA ( #381 ) ;
#381 = FILL_AREA_STYLE ('',( #382 ) ) ;
#382 = FILL_AREA_STYLE_COLOUR ( '', #383 ) ;
#383 = COLOUR_RGB ( '',0.7960784313725489700, 0.8235294117647058400, 0.9372549019607843100 ) ;
#384 = DIRECTION ( 'NONE',  ( 0.0000000000000000000, -1.000000000000000000, -3.143334444888611200E-016 ) ) ;
#385 = DIRECTION ( 'NONE',  ( 0.0000000000000000000, -3.061616997868383100E-016, 1.000000000000000000 ) ) ;
#386 = CARTESIAN_POINT ( 'NONE',  ( 0.0000000000000000000, 1.775983899502545100E-015, -1.750000000000000900 ) ) ;
#387 = AXIS2_PLACEMENT_3D ( 'NONE', #386, #385, #384 ) ;
#388 = CARTESIAN_POINT ( 'NONE',  ( 0.0000000000000000000, -6.208578643762687800, -1.750000000000002900 ) ) ;
#389 = CONICAL_SURFACE ( 'NONE', #387, 6.208578643762689500, 0.7853981633974490600 ) ;
#390 = PRODUCT_DEFINITION_SHAPE ( 'NONE', 'NONE',  #393 ) ;
#391 = PRODUCT_RELATED_PRODUCT_CATEGORY ( 'part', '', ( #398 ) ) ;
#392 = PRODUCT_DEFINITION_FORMATION_WITH_SPECIFIED_SOURCE ( 'ANY', '', #398, .NOT_KNOWN. ) ;
#393 = PRODUCT_DEFINITION ( 'UNKNOWN', '', #392, #394 ) ;
#394 = PRODUCT_DEFINITION_CONTEXT ( 'detailed design', #396, 'design' ) ;
#395 = APPLICATION_PROTOCOL_DEFINITION ( 'draft international standard', 'automotive_design', 1998, #396 ) ;
#396 = APPLICATION_CONTEXT ( 'automotive_design' ) ;
#397 = SHAPE_DEFINITION_REPRESENTATION ( #390, #281 ) ;
#398 = PRODUCT ( '3499-E0W', '3499-E0W', '', ( #399 ) ) ;
#399 = PRODUCT_CONTEXT ( 'NONE', #401, 'mechanical' ) ;
#400 = APPLICATION_PROTOCOL_DEFINITION ( 'draft international standard', 'automotive_design', 1998, #401 ) ;
#401 = APPLICATION_CONTEXT ( 'automotive_design' ) ;
ENDSEC;
END-ISO-10303-21;
