ISO-10303-21;
HEADER;
FILE_DESCRIPTION (( 'STEP AP203' ),
    '1' );
FILE_NAME ('Web Model 68736_63213.step',
    '2017-03-06T19:02:18',
    ( '' ),
    ( '' ),
    'SwSTEP 2.0',
    'SolidWorks 2016',
    '' );
FILE_SCHEMA (( 'CONFIG_CONTROL_DESIGN' ));
ENDSEC;

DATA;
#1 = DIRECTION ( 'NONE',  ( 0.0000000000000000000, 0.0000000000000000000, 1.000000000000000000 ) ) ;
#2 = DIRECTION ( 'NONE',  ( 1.000000000000000000, 0.0000000000000000000, 0.0000000000000000000 ) ) ;
#3 = LOCAL_TIME ( 14, 2, 18.00000000000000000, #11 ) ;
#4 = DIRECTION ( 'NONE',  ( 0.0000000000000000000, 0.0000000000000000000, -1.000000000000000000 ) ) ;
#5 = PERSON_AND_ORGANIZATION ( #78, #105 ) ;
#6 = CARTESIAN_POINT ( 'NONE',  ( 0.0000000000000000000, 0.0000000000000000000, 0.0000000000000000000 ) ) ;
#7 = PERSON_AND_ORGANIZATION ( #78, #105 ) ;
#8 = CIRCLE ( 'NONE', #163, 10.00000000000000000 ) ;
#9 = PRODUCT_DEFINITION ( 'UNKNOWN', '', #36, #91 ) ;
#10 = CALENDAR_DATE ( 2017, 6, 3 ) ;
#11 = COORDINATED_UNIVERSAL_TIME_OFFSET ( 5, 0, .BEHIND. ) ;
#12 = CLOSED_SHELL ( 'NONE', ( #83, #124, #95, #52 ) ) ;
#13 = SECURITY_CLASSIFICATION ( '', '', #165 ) ;
#14 = ORIENTED_EDGE ( 'NONE', *, *, #46, .T. ) ;
#15 = EDGE_LOOP ( 'NONE', ( #132, #147, #14, #18 ) ) ;
#16 = APPLICATION_CONTEXT ( 'configuration controlled 3d designs of mechanical parts and assemblies' ) ;
#17 = ORIENTED_EDGE ( 'NONE', *, *, #57, .T. ) ;
#18 = ORIENTED_EDGE ( 'NONE', *, *, #27, .T. ) ;
#19 = PERSON_AND_ORGANIZATION_ROLE ( 'design_supplier' ) ;
#20 = CARTESIAN_POINT ( 'NONE',  ( 2.000000000000000000, 1.224646799147353300E-015, -10.00000000000000000 ) ) ;
#21 = CYLINDRICAL_SURFACE ( 'NONE', #137, 10.00000000000000000 ) ;
#22 = DIRECTION ( 'NONE',  ( -1.000000000000000000, -0.0000000000000000000, -0.0000000000000000000 ) ) ;
#23 = PERSON_AND_ORGANIZATION ( #78, #105 ) ;
#24 = DIRECTION ( 'NONE',  ( -1.000000000000000000, -0.0000000000000000000, -0.0000000000000000000 ) ) ;
#25 = CARTESIAN_POINT ( 'NONE',  ( 0.0000000000000000000, 0.0000000000000000000, 10.00000000000000000 ) ) ;
#26 = CC_DESIGN_PERSON_AND_ORGANIZATION_ASSIGNMENT ( #103, #19, ( #36 ) ) ;
#27 = EDGE_CURVE ( 'NONE', #126, #33, #141, .T. ) ;
#28 = APPROVAL_ROLE ( '' ) ;
#29 = DATE_AND_TIME ( #66, #169 ) ;
#30 = PERSON_AND_ORGANIZATION_ROLE ( 'classification_officer' ) ;
#31 = COORDINATED_UNIVERSAL_TIME_OFFSET ( 5, 0, .BEHIND. ) ;
#32 = DIRECTION ( 'NONE',  ( 0.0000000000000000000, 0.0000000000000000000, -1.000000000000000000 ) ) ;
#33 = VERTEX_POINT ( 'NONE', #167 ) ;
#34 = VERTEX_POINT ( 'NONE', #20 ) ;
#35 = LOCAL_TIME ( 14, 2, 18.00000000000000000, #84 ) ;
#36 = PRODUCT_DEFINITION_FORMATION_WITH_SPECIFIED_SOURCE ( 'ANY', '', #89, .NOT_KNOWN. ) ;
#37 = CALENDAR_DATE ( 2017, 6, 3 ) ;
#38 = DIRECTION ( 'NONE',  ( 1.000000000000000000, 0.0000000000000000000, 0.0000000000000000000 ) ) ;
#39 = APPROVAL ( #64, 'UNSPECIFIED' ) ;
#40 = PERSON_AND_ORGANIZATION_ROLE ( 'creator' ) ;
#41 =( LENGTH_UNIT ( ) NAMED_UNIT ( * ) SI_UNIT ( .MILLI., .METRE. ) );
#42 = AXIS2_PLACEMENT_3D ( 'NONE', #115, #49, #32 ) ;
#43 = APPROVAL_DATE_TIME ( #48, #47 ) ;
#44 = CC_DESIGN_PERSON_AND_ORGANIZATION_ASSIGNMENT ( #146, #30, ( #13 ) ) ;
#45 = CC_DESIGN_APPROVAL ( #39, ( #13 ) ) ;
#46 = EDGE_CURVE ( 'NONE', #72, #126, #77, .T. ) ;
#47 = APPROVAL ( #118, 'UNSPECIFIED' ) ;
#48 = DATE_AND_TIME ( #10, #3 ) ;
#49 = DIRECTION ( 'NONE',  ( 1.000000000000000000, 0.0000000000000000000, 0.0000000000000000000 ) ) ;
#50 = APPLICATION_CONTEXT ( 'configuration controlled 3d designs of mechanical parts and assemblies' ) ;
#51 = ORIENTED_EDGE ( 'NONE', *, *, #150, .T. ) ;
#52 = ADVANCED_FACE ( 'NONE', ( #121 ), #129, .F. ) ;
#53 = CC_DESIGN_DATE_AND_TIME_ASSIGNMENT ( #69, #79, ( #9 ) ) ;
#54 = FACE_OUTER_BOUND ( 'NONE', #15, .T. ) ;
#55 = CC_DESIGN_SECURITY_CLASSIFICATION ( #13, ( #36 ) ) ;
#56 = APPROVAL_PERSON_ORGANIZATION ( #101, #156, #80 ) ;
#57 = EDGE_CURVE ( 'NONE', #34, #33, #81, .T. ) ;
#58 = APPROVAL_DATE_TIME ( #173, #156 ) ;
#59 = ORIENTED_EDGE ( 'NONE', *, *, #46, .F. ) ;
#60 = MECHANICAL_CONTEXT ( 'NONE', #16, 'mechanical' ) ;
#61 = DIRECTION ( 'NONE',  ( 0.0000000000000000000, 0.0000000000000000000, -1.000000000000000000 ) ) ;
#62 = CARTESIAN_POINT ( 'NONE',  ( 0.0000000000000000000, 0.0000000000000000000, 0.0000000000000000000 ) ) ;
#63 = VECTOR ( 'NONE', #170, 1000.000000000000000 ) ;
#64 = APPROVAL_STATUS ( 'not_yet_approved' ) ;
#65 = MANIFOLD_SOLID_BREP ( 'Extrude1', #12 ) ;
#66 = CALENDAR_DATE ( 2017, 6, 3 ) ;
#67 = DIRECTION ( 'NONE',  ( 1.000000000000000000, 0.0000000000000000000, 0.0000000000000000000 ) ) ;
#68 = CALENDAR_DATE ( 2017, 6, 3 ) ;
#69 = DATE_AND_TIME ( #37, #35 ) ;
#70 = FACE_OUTER_BOUND ( 'NONE', #74, .T. ) ;
#71 = CC_DESIGN_PERSON_AND_ORGANIZATION_ASSIGNMENT ( #5, #40, ( #9 ) ) ;
#72 = VERTEX_POINT ( 'NONE', #143 ) ;
#73 = EDGE_LOOP ( 'NONE', ( #135, #174 ) ) ;
#74 = EDGE_LOOP ( 'NONE', ( #110, #17, #144, #59 ) ) ;
#75 = EDGE_CURVE ( 'NONE', #33, #126, #8, .T. ) ;
#76 = PERSON_AND_ORGANIZATION_ROLE ( 'design_owner' ) ;
#77 = LINE ( 'NONE', #171, #63 ) ;
#78 = PERSON ( 'UNSPECIFIED', 'UNSPECIFIED', 'UNSPECIFIED', ('UNSPECIFIED'), ('UNSPECIFIED'), ('UNSPECIFIED') ) ;
#79 = DATE_TIME_ROLE ( 'creation_date' ) ;
#80 = APPROVAL_ROLE ( '' ) ;
#81 = LINE ( 'NONE', #158, #114 ) ;
#82 =( NAMED_UNIT ( * ) PLANE_ANGLE_UNIT ( ) SI_UNIT ( $, .RADIAN. ) );
#83 = ADVANCED_FACE ( 'NONE', ( #70 ), #21, .T. ) ;
#84 = COORDINATED_UNIVERSAL_TIME_OFFSET ( 5, 0, .BEHIND. ) ;
#85 = CARTESIAN_POINT ( 'NONE',  ( 2.000000000000000000, 0.0000000000000000000, 0.0000000000000000000 ) ) ;
#86 = COORDINATED_UNIVERSAL_TIME_OFFSET ( 5, 0, .BEHIND. ) ;
#87 = CC_DESIGN_APPROVAL ( #156, ( #36 ) ) ;
#88 = APPLICATION_PROTOCOL_DEFINITION ( 'international standard', 'config_control_design', 1994, #16 ) ;
#89 = PRODUCT ( 'Web Model 68736_63213', 'Web Model 68736_63213', '', ( #60 ) ) ;
#90 = CARTESIAN_POINT ( 'NONE',  ( 0.0000000000000000000, 0.0000000000000000000, 0.0000000000000000000 ) ) ;
#91 = DESIGN_CONTEXT ( 'detailed design', #50, 'design' ) ;
#92 = CALENDAR_DATE ( 2017, 6, 3 ) ;
#93 = APPROVAL_ROLE ( '' ) ;
#94 = DIRECTION ( 'NONE',  ( 0.0000000000000000000, 0.0000000000000000000, -1.000000000000000000 ) ) ;
#95 = ADVANCED_FACE ( 'NONE', ( #151 ), #164, .T. ) ;
#96 = CARTESIAN_POINT ( 'NONE',  ( 0.0000000000000000000, 0.0000000000000000000, 0.0000000000000000000 ) ) ;
#97 = UNCERTAINTY_MEASURE_WITH_UNIT (LENGTH_MEASURE( 1.000000000000000100E-005 ), #41, 'distance_accuracy_value', 'NONE');
#98 = AXIS2_PLACEMENT_3D ( 'NONE', #96, #99, #4 ) ;
#99 = DIRECTION ( 'NONE',  ( 1.000000000000000000, 0.0000000000000000000, 0.0000000000000000000 ) ) ;
#100 = PERSON_AND_ORGANIZATION_ROLE ( 'creator' ) ;
#101 = PERSON_AND_ORGANIZATION ( #78, #105 ) ;
#102 = APPROVAL_STATUS ( 'not_yet_approved' ) ;
#103 = PERSON_AND_ORGANIZATION ( #78, #105 ) ;
#104 = CC_DESIGN_PERSON_AND_ORGANIZATION_ASSIGNMENT ( #7, #100, ( #36 ) ) ;
#105 = ORGANIZATION ( 'UNSPECIFIED', 'UNSPECIFIED', '' ) ;
#106 = COORDINATED_UNIVERSAL_TIME_OFFSET ( 5, 0, .BEHIND. ) ;
#107 = AXIS2_PLACEMENT_3D ( 'NONE', #85, #38, #140 ) ;
#108 = CC_DESIGN_PERSON_AND_ORGANIZATION_ASSIGNMENT ( #23, #76, ( #89 ) ) ;
#109 = DIRECTION ( 'NONE',  ( 1.000000000000000000, 0.0000000000000000000, 0.0000000000000000000 ) ) ;
#110 = ORIENTED_EDGE ( 'NONE', *, *, #128, .F. ) ;
#111 = CIRCLE ( 'NONE', #155, 10.00000000000000000 ) ;
#112 =( GEOMETRIC_REPRESENTATION_CONTEXT ( 3 ) GLOBAL_UNCERTAINTY_ASSIGNED_CONTEXT ( ( #97 ) ) GLOBAL_UNIT_ASSIGNED_CONTEXT ( ( #41, #82, #153 ) ) REPRESENTATION_CONTEXT ( 'NONE', 'WORKASPACE' ) );
#113 = DATE_AND_TIME ( #68, #157 ) ;
#114 = VECTOR ( 'NONE', #24, 1000.000000000000000 ) ;
#115 = CARTESIAN_POINT ( 'NONE',  ( 2.000000000000000000, 0.0000000000000000000, 0.0000000000000000000 ) ) ;
#116 = CC_DESIGN_DATE_AND_TIME_ASSIGNMENT ( #113, #145, ( #13 ) ) ;
#117 = APPROVAL_DATE_TIME ( #29, #39 ) ;
#118 = APPROVAL_STATUS ( 'not_yet_approved' ) ;
#119 = CIRCLE ( 'NONE', #42, 10.00000000000000000 ) ;
#120 = AXIS2_PLACEMENT_3D ( 'NONE', #90, #160, #109 ) ;
#121 = FACE_OUTER_BOUND ( 'NONE', #73, .T. ) ;
#122 = ADVANCED_BREP_SHAPE_REPRESENTATION ( 'Web Model 68736_63213', ( #65, #120 ), #112 ) ;
#123 = SHAPE_DEFINITION_REPRESENTATION ( #172, #122 ) ;
#124 = ADVANCED_FACE ( 'NONE', ( #54 ), #161, .T. ) ;
#125 = CARTESIAN_POINT ( 'NONE',  ( 2.000000000000000000, 0.0000000000000000000, 0.0000000000000000000 ) ) ;
#126 = VERTEX_POINT ( 'NONE', #25 ) ;
#127 = AXIS2_PLACEMENT_3D ( 'NONE', #125, #168, #1 ) ;
#128 = EDGE_CURVE ( 'NONE', #34, #72, #119, .T. ) ;
#129 = PLANE ( 'NONE',  #98 ) ;
#130 = DIRECTION ( 'NONE',  ( 0.0000000000000000000, 0.0000000000000000000, 1.000000000000000000 ) ) ;
#131 = LOCAL_TIME ( 14, 2, 18.00000000000000000, #86 ) ;
#132 = ORIENTED_EDGE ( 'NONE', *, *, #57, .F. ) ;
#133 = APPLICATION_PROTOCOL_DEFINITION ( 'international standard', 'config_control_design', 1994, #50 ) ;
#134 = APPROVAL_PERSON_ORGANIZATION ( #148, #39, #93 ) ;
#135 = ORIENTED_EDGE ( 'NONE', *, *, #27, .F. ) ;
#136 = PRODUCT_RELATED_PRODUCT_CATEGORY ( 'detail', '', ( #89 ) ) ;
#137 = AXIS2_PLACEMENT_3D ( 'NONE', #154, #22, #130 ) ;
#138 = EDGE_LOOP ( 'NONE', ( #51, #166 ) ) ;
#139 = CC_DESIGN_APPROVAL ( #47, ( #9 ) ) ;
#140 = DIRECTION ( 'NONE',  ( 0.0000000000000000000, 0.0000000000000000000, -1.000000000000000000 ) ) ;
#141 = CIRCLE ( 'NONE', #149, 10.00000000000000000 ) ;
#142 = CARTESIAN_POINT ( 'NONE',  ( 2.000000000000000000, 0.0000000000000000000, 0.0000000000000000000 ) ) ;
#143 = CARTESIAN_POINT ( 'NONE',  ( 2.000000000000000000, 0.0000000000000000000, 10.00000000000000000 ) ) ;
#144 = ORIENTED_EDGE ( 'NONE', *, *, #75, .T. ) ;
#145 = DATE_TIME_ROLE ( 'classification_date' ) ;
#146 = PERSON_AND_ORGANIZATION ( #78, #105 ) ;
#147 = ORIENTED_EDGE ( 'NONE', *, *, #150, .F. ) ;
#148 = PERSON_AND_ORGANIZATION ( #78, #105 ) ;
#149 = AXIS2_PLACEMENT_3D ( 'NONE', #6, #159, #61 ) ;
#150 = EDGE_CURVE ( 'NONE', #72, #34, #111, .T. ) ;
#151 = FACE_OUTER_BOUND ( 'NONE', #138, .T. ) ;
#152 = DIRECTION ( 'NONE',  ( 0.0000000000000000000, 0.0000000000000000000, -1.000000000000000000 ) ) ;
#153 =( NAMED_UNIT ( * ) SI_UNIT ( $, .STERADIAN. ) SOLID_ANGLE_UNIT ( ) );
#154 = CARTESIAN_POINT ( 'NONE',  ( 2.000000000000000000, 0.0000000000000000000, 0.0000000000000000000 ) ) ;
#155 = AXIS2_PLACEMENT_3D ( 'NONE', #142, #2, #94 ) ;
#156 = APPROVAL ( #102, 'UNSPECIFIED' ) ;
#157 = LOCAL_TIME ( 14, 2, 18.00000000000000000, #106 ) ;
#158 = CARTESIAN_POINT ( 'NONE',  ( 2.000000000000000000, 1.224646799147353300E-015, -10.00000000000000000 ) ) ;
#159 = DIRECTION ( 'NONE',  ( 1.000000000000000000, 0.0000000000000000000, 0.0000000000000000000 ) ) ;
#160 = DIRECTION ( 'NONE',  ( 0.0000000000000000000, 0.0000000000000000000, 1.000000000000000000 ) ) ;
#161 = CYLINDRICAL_SURFACE ( 'NONE', #127, 10.00000000000000000 ) ;
#162 = PERSON_AND_ORGANIZATION ( #78, #105 ) ;
#163 = AXIS2_PLACEMENT_3D ( 'NONE', #62, #67, #152 ) ;
#164 = PLANE ( 'NONE',  #107 ) ;
#165 = SECURITY_CLASSIFICATION_LEVEL ( 'unclassified' ) ;
#166 = ORIENTED_EDGE ( 'NONE', *, *, #128, .T. ) ;
#167 = CARTESIAN_POINT ( 'NONE',  ( 0.0000000000000000000, 1.224646799147353300E-015, -10.00000000000000000 ) ) ;
#168 = DIRECTION ( 'NONE',  ( -1.000000000000000000, -0.0000000000000000000, -0.0000000000000000000 ) ) ;
#169 = LOCAL_TIME ( 14, 2, 18.00000000000000000, #31 ) ;
#170 = DIRECTION ( 'NONE',  ( -1.000000000000000000, -0.0000000000000000000, -0.0000000000000000000 ) ) ;
#171 = CARTESIAN_POINT ( 'NONE',  ( 2.000000000000000000, 0.0000000000000000000, 10.00000000000000000 ) ) ;
#172 = PRODUCT_DEFINITION_SHAPE ( 'NONE', 'NONE',  #9 ) ;
#173 = DATE_AND_TIME ( #92, #131 ) ;
#174 = ORIENTED_EDGE ( 'NONE', *, *, #75, .F. ) ;
#175 = APPROVAL_PERSON_ORGANIZATION ( #162, #47, #28 ) ;
ENDSEC;
END-ISO-10303-21;
