ISO-10303-21;
HEADER;
FILE_DESCRIPTION (( 'STEP AP203' ),
    '1' );
FILE_NAME ('step_35941.step',
    '2017-05-22T20:26:12',
    ( '' ),
    ( '' ),
    'SwSTEP 2.0',
    'SolidWorks 2016',
    '' );
FILE_SCHEMA (( 'CONFIG_CONTROL_DESIGN' ));
ENDSEC;

DATA;
#1 = PLANE ( 'NONE',  #98 ) ;
#2 = CARTESIAN_POINT ( 'NONE',  ( -6.250000000000002700, 8.749999999999998200, 1.000000000000000000 ) ) ;
#3 = CC_DESIGN_APPROVAL ( #6, ( #16 ) ) ;
#4 = MANIFOLD_SOLID_BREP ( 'Boss-Extrude1', #209 ) ;
#5 = DATE_AND_TIME ( #7, #9 ) ;
#6 = APPROVAL ( #116, 'UNSPECIFIED' ) ;
#7 = CALENDAR_DATE ( 2017, 22, 5 ) ;
#8 = CARTESIAN_POINT ( 'NONE',  ( 6.249999999999997300, 8.749999999999998200, 1.000000000000000000 ) ) ;
#9 = LOCAL_TIME ( 13, 26, 12.00000000000000000, #10 ) ;
#10 = COORDINATED_UNIVERSAL_TIME_OFFSET ( 7, 0, .BEHIND. ) ;
#11 = CC_DESIGN_DATE_AND_TIME_ASSIGNMENT ( #22, #196, ( #16 ) ) ;
#12 = CC_DESIGN_PERSON_AND_ORGANIZATION_ASSIGNMENT ( #29, #145, ( #16 ) ) ;
#13 = APPROVAL_PERSON_ORGANIZATION ( #14, #6, #65 ) ;
#14 = PERSON_AND_ORGANIZATION ( #83, #185 ) ;
#15 = CARTESIAN_POINT ( 'NONE',  ( -6.250000000000000000, -8.750000000000001800, 0.0000000000000000000 ) ) ;
#16 = SECURITY_CLASSIFICATION ( '', '', #182 ) ;
#17 = CC_DESIGN_PERSON_AND_ORGANIZATION_ASSIGNMENT ( #31, #236, ( #40 ) ) ;
#18 = ADVANCED_FACE ( 'NONE', ( #193 ), #26, .F. ) ;
#19 = CARTESIAN_POINT ( 'NONE',  ( 0.0000000000000000000, 0.0000000000000000000, 1.000000000000000000 ) ) ;
#20 = CC_DESIGN_PERSON_AND_ORGANIZATION_ASSIGNMENT ( #34, #152, ( #40 ) ) ;
#21 = FACE_OUTER_BOUND ( 'NONE', #46, .T. ) ;
#22 = DATE_AND_TIME ( #23, #27 ) ;
#23 = CALENDAR_DATE ( 2017, 22, 5 ) ;
#24 = CC_DESIGN_APPROVAL ( #32, ( #40 ) ) ;
#25 = CARTESIAN_POINT ( 'NONE',  ( -6.250000000000002700, 8.749999999999998200, 0.0000000000000000000 ) ) ;
#26 = PLANE ( 'NONE',  #202 ) ;
#27 = LOCAL_TIME ( 13, 26, 12.00000000000000000, #28 ) ;
#28 = COORDINATED_UNIVERSAL_TIME_OFFSET ( 7, 0, .BEHIND. ) ;
#29 = PERSON_AND_ORGANIZATION ( #83, #185 ) ;
#30 = DIRECTION ( 'NONE',  ( 1.000000000000000000, 0.0000000000000000000, 0.0000000000000000000 ) ) ;
#31 = PERSON_AND_ORGANIZATION ( #83, #185 ) ;
#32 = APPROVAL ( #164, 'UNSPECIFIED' ) ;
#33 = DIRECTION ( 'NONE',  ( -1.000000000000000000, -9.912705577010325500E-017, 0.0000000000000000000 ) ) ;
#34 = PERSON_AND_ORGANIZATION ( #83, #185 ) ;
#35 = APPROVAL_DATE_TIME ( #37, #32 ) ;
#36 = PERSON_AND_ORGANIZATION_ROLE ( 'design_owner' ) ;
#37 = DATE_AND_TIME ( #39, #43 ) ;
#38 = DIRECTION ( 'NONE',  ( 1.000000000000000000, 0.0000000000000000000, 0.0000000000000000000 ) ) ;
#39 = CALENDAR_DATE ( 2017, 22, 5 ) ;
#40 = PRODUCT_DEFINITION_FORMATION_WITH_SPECIFIED_SOURCE ( 'ANY', '', #141, .NOT_KNOWN. ) ;
#41 = DIRECTION ( 'NONE',  ( -0.0000000000000000000, 0.0000000000000000000, 1.000000000000000000 ) ) ;
#42 = CC_DESIGN_DATE_AND_TIME_ASSIGNMENT ( #55, #167, ( #53 ) ) ;
#43 = LOCAL_TIME ( 13, 26, 12.00000000000000000, #44 ) ;
#44 = COORDINATED_UNIVERSAL_TIME_OFFSET ( 7, 0, .BEHIND. ) ;
#45 = APPROVAL_PERSON_ORGANIZATION ( #48, #32, #161 ) ;
#46 = EDGE_LOOP ( 'NONE', ( #163, #59, #212, #213 ) ) ;
#47 = CC_DESIGN_PERSON_AND_ORGANIZATION_ASSIGNMENT ( #162, #168, ( #53 ) ) ;
#48 = PERSON_AND_ORGANIZATION ( #83, #185 ) ;
#49 = PERSON_AND_ORGANIZATION ( #83, #185 ) ;
#50 = CALENDAR_DATE ( 2017, 22, 5 ) ;
#51 = CC_DESIGN_APPROVAL ( #177, ( #53 ) ) ;
#52 = ORIENTED_EDGE ( 'NONE', *, *, #149, .T. ) ;
#53 = PRODUCT_DEFINITION ( 'UNKNOWN', '', #40, #69 ) ;
#54 = ORIENTED_EDGE ( 'NONE', *, *, #151, .T. ) ;
#55 = DATE_AND_TIME ( #50, #57 ) ;
#56 = DIRECTION ( 'NONE',  ( 0.0000000000000000000, 1.000000000000000000, 0.0000000000000000000 ) ) ;
#57 = LOCAL_TIME ( 13, 26, 12.00000000000000000, #156 ) ;
#58 = CARTESIAN_POINT ( 'NONE',  ( 6.249999999999999100, -8.750000000000001800, 0.0000000000000000000 ) ) ;
#59 = ORIENTED_EDGE ( 'NONE', *, *, #151, .F. ) ;
#60 = CC_DESIGN_PERSON_AND_ORGANIZATION_ASSIGNMENT ( #148, #36, ( #141 ) ) ;
#61 = CARTESIAN_POINT ( 'NONE',  ( 6.249999999999999100, -8.750000000000001800, 1.000000000000000000 ) ) ;
#62 = DIRECTION ( 'NONE',  ( 0.0000000000000000000, -1.000000000000000000, 0.0000000000000000000 ) ) ;
#63 = AXIS2_PLACEMENT_3D ( 'NONE', #80, #113, #90 ) ;
#64 = VECTOR ( 'NONE', #84, 1000.000000000000000 ) ;
#65 = APPROVAL_ROLE ( '' ) ;
#66 = LINE ( 'NONE', #15, #114 ) ;
#67 = DIRECTION ( 'NONE',  ( -0.0000000000000000000, -0.0000000000000000000, -1.000000000000000000 ) ) ;
#68 = ADVANCED_FACE ( 'NONE', ( #160 ), #237, .F. ) ;
#69 = DESIGN_CONTEXT ( 'detailed design', #178, 'design' ) ;
#70 = ADVANCED_FACE ( 'NONE', ( #159 ), #130, .F. ) ;
#71 = CARTESIAN_POINT ( 'NONE',  ( -6.250000000000002700, 8.749999999999998200, 0.0000000000000000000 ) ) ;
#72 = CARTESIAN_POINT ( 'NONE',  ( 6.249999999999997300, 8.749999999999998200, 1.000000000000000000 ) ) ;
#73 = DIRECTION ( 'NONE',  ( 1.000000000000000000, 0.0000000000000000000, 0.0000000000000000000 ) ) ;
#74 = CARTESIAN_POINT ( 'NONE',  ( -6.250000000000002700, 8.749999999999998200, 0.0000000000000000000 ) ) ;
#75 = PLANE ( 'NONE',  #86 ) ;
#76 = APPLICATION_CONTEXT ( 'configuration controlled 3d designs of mechanical parts and assemblies' ) ;
#77 = DATE_AND_TIME ( #173, #144 ) ;
#78 = CARTESIAN_POINT ( 'NONE',  ( 0.0000000000000000000, 0.0000000000000000000, 0.0000000000000000000 ) ) ;
#79 = DIRECTION ( 'NONE',  ( -1.486905836551548800E-016, 1.000000000000000000, 0.0000000000000000000 ) ) ;
#80 = CARTESIAN_POINT ( 'NONE',  ( 0.0000000000000000000, 0.0000000000000000000, 0.0000000000000000000 ) ) ;
#81 = CARTESIAN_POINT ( 'NONE',  ( 6.249999999999997300, 8.749999999999998200, 0.0000000000000000000 ) ) ;
#82 = DIRECTION ( 'NONE',  ( -0.0000000000000000000, -0.0000000000000000000, -1.000000000000000000 ) ) ;
#83 = PERSON ( 'UNSPECIFIED', 'UNSPECIFIED', 'UNSPECIFIED', ('UNSPECIFIED'), ('UNSPECIFIED'), ('UNSPECIFIED') ) ;
#84 = DIRECTION ( 'NONE',  ( -1.000000000000000000, -0.0000000000000000000, -0.0000000000000000000 ) ) ;
#85 = CC_DESIGN_SECURITY_CLASSIFICATION ( #16, ( #40 ) ) ;
#86 = AXIS2_PLACEMENT_3D ( 'NONE', #19, #41, #30 ) ;
#87 =( GEOMETRIC_REPRESENTATION_CONTEXT ( 3 ) GLOBAL_UNCERTAINTY_ASSIGNED_CONTEXT ( ( #165 ) ) GLOBAL_UNIT_ASSIGNED_CONTEXT ( ( #223, #221, #219 ) ) REPRESENTATION_CONTEXT ( 'NONE', 'WORKASPACE' ) );
#88 = VECTOR ( 'NONE', #112, 1000.000000000000000 ) ;
#89 = ADVANCED_FACE ( 'NONE', ( #227 ), #143, .F. ) ;
#90 = DIRECTION ( 'NONE',  ( 1.000000000000000000, 0.0000000000000000000, 0.0000000000000000000 ) ) ;
#91 = LINE ( 'NONE', #222, #88 ) ;
#92 = DIRECTION ( 'NONE',  ( -9.912705577010325500E-017, 1.000000000000000000, -0.0000000000000000000 ) ) ;
#93 = ORIENTED_EDGE ( 'NONE', *, *, #137, .T. ) ;
#94 = LINE ( 'NONE', #133, #119 ) ;
#95 = PRODUCT_RELATED_PRODUCT_CATEGORY ( 'detail', '', ( #141 ) ) ;
#96 = CARTESIAN_POINT ( 'NONE',  ( -6.250000000000002700, 8.749999999999998200, 1.000000000000000000 ) ) ;
#97 = CARTESIAN_POINT ( 'NONE',  ( -6.250000000000002700, 8.749999999999998200, 1.000000000000000000 ) ) ;
#98 = AXIS2_PLACEMENT_3D ( 'NONE', #78, #195, #73 ) ;
#99 = ORIENTED_EDGE ( 'NONE', *, *, #117, .T. ) ;
#100 = CARTESIAN_POINT ( 'NONE',  ( -6.250000000000002700, 8.749999999999998200, 1.000000000000000000 ) ) ;
#101 = VECTOR ( 'NONE', #155, 1000.000000000000000 ) ;
#102 = ORIENTED_EDGE ( 'NONE', *, *, #117, .F. ) ;
#103 = VERTEX_POINT ( 'NONE', #71 ) ;
#104 = COORDINATED_UNIVERSAL_TIME_OFFSET ( 7, 0, .BEHIND. ) ;
#105 = CARTESIAN_POINT ( 'NONE',  ( -6.250000000000002700, 8.749999999999998200, 1.000000000000000000 ) ) ;
#106 = AXIS2_PLACEMENT_3D ( 'NONE', #170, #56, #203 ) ;
#107 = AXIS2_PLACEMENT_3D ( 'NONE', #96, #62, #210 ) ;
#108 = DIRECTION ( 'NONE',  ( 1.000000000000000000, 0.0000000000000000000, 0.0000000000000000000 ) ) ;
#109 = VERTEX_POINT ( 'NONE', #129 ) ;
#110 = ADVANCED_FACE ( 'NONE', ( #21 ), #1, .F. ) ;
#111 = VECTOR ( 'NONE', #179, 1000.000000000000000 ) ;
#112 = DIRECTION ( 'NONE',  ( -0.0000000000000000000, -0.0000000000000000000, -1.000000000000000000 ) ) ;
#113 = DIRECTION ( 'NONE',  ( 0.0000000000000000000, 0.0000000000000000000, 1.000000000000000000 ) ) ;
#114 = VECTOR ( 'NONE', #38, 1000.000000000000000 ) ;
#115 = LINE ( 'NONE', #74, #64 ) ;
#116 = APPROVAL_STATUS ( 'not_yet_approved' ) ;
#117 = EDGE_CURVE ( 'NONE', #204, #134, #139, .T. ) ;
#118 = VECTOR ( 'NONE', #82, 1000.000000000000000 ) ;
#119 = VECTOR ( 'NONE', #92, 1000.000000000000000 ) ;
#120 = CARTESIAN_POINT ( 'NONE',  ( -6.250000000000000000, -8.750000000000001800, 1.000000000000000000 ) ) ;
#121 = LINE ( 'NONE', #97, #111 ) ;
#122 = LINE ( 'NONE', #25, #101 ) ;
#123 = LINE ( 'NONE', #120, #118 ) ;
#124 = LINE ( 'NONE', #81, #131 ) ;
#125 = VECTOR ( 'NONE', #108, 1000.000000000000000 ) ;
#126 = APPLICATION_PROTOCOL_DEFINITION ( 'international standard', 'config_control_design', 1994, #76 ) ;
#127 = FACE_OUTER_BOUND ( 'NONE', #205, .T. ) ;
#128 = LINE ( 'NONE', #218, #125 ) ;
#129 = CARTESIAN_POINT ( 'NONE',  ( -6.250000000000000000, -8.750000000000001800, 0.0000000000000000000 ) ) ;
#130 = PLANE ( 'NONE',  #107 ) ;
#131 = VECTOR ( 'NONE', #187, 1000.000000000000000 ) ;
#132 = EDGE_CURVE ( 'NONE', #194, #103, #228, .T. ) ;
#133 = CARTESIAN_POINT ( 'NONE',  ( 6.249999999999997300, 8.749999999999998200, 1.000000000000000000 ) ) ;
#134 = VERTEX_POINT ( 'NONE', #191 ) ;
#135 = VECTOR ( 'NONE', #67, 1000.000000000000000 ) ;
#136 = LINE ( 'NONE', #235, #176 ) ;
#137 = EDGE_CURVE ( 'NONE', #208, #188, #128, .T. ) ;
#138 = VECTOR ( 'NONE', #206, 1000.000000000000000 ) ;
#139 = LINE ( 'NONE', #8, #135 ) ;
#140 = EDGE_CURVE ( 'NONE', #204, #194, #136, .T. ) ;
#141 = PRODUCT ( 'step_35941', 'step_35941', '', ( #154 ) ) ;
#142 = SHAPE_DEFINITION_REPRESENTATION ( #166, #224 ) ;
#143 = PLANE ( 'NONE',  #106 ) ;
#144 = LOCAL_TIME ( 13, 26, 12.00000000000000000, #104 ) ;
#145 = PERSON_AND_ORGANIZATION_ROLE ( 'classification_officer' ) ;
#146 = CARTESIAN_POINT ( 'NONE',  ( 6.249999999999997300, 8.749999999999998200, 1.000000000000000000 ) ) ;
#147 = EDGE_CURVE ( 'NONE', #109, #175, #66, .T. ) ;
#148 = PERSON_AND_ORGANIZATION ( #83, #185 ) ;
#149 = EDGE_CURVE ( 'NONE', #103, #109, #122, .T. ) ;
#150 = APPROVAL_PERSON_ORGANIZATION ( #49, #177, #169 ) ;
#151 = EDGE_CURVE ( 'NONE', #134, #103, #115, .T. ) ;
#152 = PERSON_AND_ORGANIZATION_ROLE ( 'creator' ) ;
#153 = ORIENTED_EDGE ( 'NONE', *, *, #132, .T. ) ;
#154 = MECHANICAL_CONTEXT ( 'NONE', #76, 'mechanical' ) ;
#155 = DIRECTION ( 'NONE',  ( 1.486905836551548800E-016, -1.000000000000000000, 0.0000000000000000000 ) ) ;
#156 = COORDINATED_UNIVERSAL_TIME_OFFSET ( 7, 0, .BEHIND. ) ;
#157 = ORIENTED_EDGE ( 'NONE', *, *, #232, .F. ) ;
#158 = ORIENTED_EDGE ( 'NONE', *, *, #229, .F. ) ;
#159 = FACE_OUTER_BOUND ( 'NONE', #192, .T. ) ;
#160 = FACE_OUTER_BOUND ( 'NONE', #225, .T. ) ;
#161 = APPROVAL_ROLE ( '' ) ;
#162 = PERSON_AND_ORGANIZATION ( #83, #185 ) ;
#163 = ORIENTED_EDGE ( 'NONE', *, *, #149, .F. ) ;
#164 = APPROVAL_STATUS ( 'not_yet_approved' ) ;
#165 = UNCERTAINTY_MEASURE_WITH_UNIT (LENGTH_MEASURE( 1.000000000000000100E-005 ), #223, 'distance_accuracy_value', 'NONE');
#166 = PRODUCT_DEFINITION_SHAPE ( 'NONE', 'NONE',  #53 ) ;
#167 = DATE_TIME_ROLE ( 'creation_date' ) ;
#168 = PERSON_AND_ORGANIZATION_ROLE ( 'creator' ) ;
#169 = APPROVAL_ROLE ( '' ) ;
#170 = CARTESIAN_POINT ( 'NONE',  ( -6.250000000000000000, -8.750000000000001800, 1.000000000000000000 ) ) ;
#171 = DIRECTION ( 'NONE',  ( -1.000000000000000000, -0.0000000000000000000, -0.0000000000000000000 ) ) ;
#172 = APPROVAL_STATUS ( 'not_yet_approved' ) ;
#173 = CALENDAR_DATE ( 2017, 22, 5 ) ;
#174 = APPLICATION_PROTOCOL_DEFINITION ( 'international standard', 'config_control_design', 1994, #178 ) ;
#175 = VERTEX_POINT ( 'NONE', #58 ) ;
#176 = VECTOR ( 'NONE', #171, 1000.000000000000000 ) ;
#177 = APPROVAL ( #172, 'UNSPECIFIED' ) ;
#178 = APPLICATION_CONTEXT ( 'configuration controlled 3d designs of mechanical parts and assemblies' ) ;
#179 = DIRECTION ( 'NONE',  ( 1.486905836551548800E-016, -1.000000000000000000, 0.0000000000000000000 ) ) ;
#180 = CARTESIAN_POINT ( 'NONE',  ( -6.250000000000000000, -8.750000000000001800, 1.000000000000000000 ) ) ;
#181 = APPROVAL_DATE_TIME ( #5, #6 ) ;
#182 = SECURITY_CLASSIFICATION_LEVEL ( 'unclassified' ) ;
#183 = ORIENTED_EDGE ( 'NONE', *, *, #232, .T. ) ;
#184 = ORIENTED_EDGE ( 'NONE', *, *, #140, .F. ) ;
#185 = ORGANIZATION ( 'UNSPECIFIED', 'UNSPECIFIED', '' ) ;
#186 = APPROVAL_DATE_TIME ( #77, #177 ) ;
#187 = DIRECTION ( 'NONE',  ( -9.912705577010325500E-017, 1.000000000000000000, -0.0000000000000000000 ) ) ;
#188 = VERTEX_POINT ( 'NONE', #61 ) ;
#189 = ORIENTED_EDGE ( 'NONE', *, *, #230, .T. ) ;
#190 = ADVANCED_FACE ( 'NONE', ( #127 ), #75, .T. ) ;
#191 = CARTESIAN_POINT ( 'NONE',  ( 6.249999999999997300, 8.749999999999998200, 0.0000000000000000000 ) ) ;
#192 = EDGE_LOOP ( 'NONE', ( #54, #216, #184, #99 ) ) ;
#193 = FACE_OUTER_BOUND ( 'NONE', #197, .T. ) ;
#194 = VERTEX_POINT ( 'NONE', #2 ) ;
#195 = DIRECTION ( 'NONE',  ( -0.0000000000000000000, 0.0000000000000000000, 1.000000000000000000 ) ) ;
#196 = DATE_TIME_ROLE ( 'classification_date' ) ;
#197 = EDGE_LOOP ( 'NONE', ( #217, #102, #220, #199 ) ) ;
#198 = DIRECTION ( 'NONE',  ( 1.000000000000000000, 1.486905836551548800E-016, -0.0000000000000000000 ) ) ;
#199 = ORIENTED_EDGE ( 'NONE', *, *, #231, .T. ) ;
#200 = ORIENTED_EDGE ( 'NONE', *, *, #229, .T. ) ;
#201 = ORIENTED_EDGE ( 'NONE', *, *, #147, .T. ) ;
#202 = AXIS2_PLACEMENT_3D ( 'NONE', #146, #33, #226 ) ;
#203 = DIRECTION ( 'NONE',  ( 0.0000000000000000000, -0.0000000000000000000, 1.000000000000000000 ) ) ;
#204 = VERTEX_POINT ( 'NONE', #72 ) ;
#205 = EDGE_LOOP ( 'NONE', ( #200, #93, #189, #211 ) ) ;
#206 = DIRECTION ( 'NONE',  ( -0.0000000000000000000, -0.0000000000000000000, -1.000000000000000000 ) ) ;
#207 = AXIS2_PLACEMENT_3D ( 'NONE', #105, #198, #79 ) ;
#208 = VERTEX_POINT ( 'NONE', #180 ) ;
#209 = CLOSED_SHELL ( 'NONE', ( #68, #89, #18, #70, #190, #110 ) ) ;
#210 = DIRECTION ( 'NONE',  ( 0.0000000000000000000, -0.0000000000000000000, -1.000000000000000000 ) ) ;
#211 = ORIENTED_EDGE ( 'NONE', *, *, #140, .T. ) ;
#212 = ORIENTED_EDGE ( 'NONE', *, *, #214, .F. ) ;
#213 = ORIENTED_EDGE ( 'NONE', *, *, #147, .F. ) ;
#214 = EDGE_CURVE ( 'NONE', #175, #134, #124, .T. ) ;
#215 = EDGE_LOOP ( 'NONE', ( #201, #234, #233, #183 ) ) ;
#216 = ORIENTED_EDGE ( 'NONE', *, *, #132, .F. ) ;
#217 = ORIENTED_EDGE ( 'NONE', *, *, #214, .T. ) ;
#218 = CARTESIAN_POINT ( 'NONE',  ( -6.250000000000000000, -8.750000000000001800, 1.000000000000000000 ) ) ;
#219 =( NAMED_UNIT ( * ) SI_UNIT ( $, .STERADIAN. ) SOLID_ANGLE_UNIT ( ) );
#220 = ORIENTED_EDGE ( 'NONE', *, *, #230, .F. ) ;
#221 =( NAMED_UNIT ( * ) PLANE_ANGLE_UNIT ( ) SI_UNIT ( $, .RADIAN. ) );
#222 = CARTESIAN_POINT ( 'NONE',  ( 6.249999999999999100, -8.750000000000001800, 1.000000000000000000 ) ) ;
#223 =( LENGTH_UNIT ( ) NAMED_UNIT ( * ) SI_UNIT ( .MILLI., .METRE. ) );
#224 = ADVANCED_BREP_SHAPE_REPRESENTATION ( 'step_35941', ( #4, #63 ), #87 ) ;
#225 = EDGE_LOOP ( 'NONE', ( #52, #157, #158, #153 ) ) ;
#226 = DIRECTION ( 'NONE',  ( 9.912705577010325500E-017, -1.000000000000000000, 0.0000000000000000000 ) ) ;
#227 = FACE_OUTER_BOUND ( 'NONE', #215, .T. ) ;
#228 = LINE ( 'NONE', #100, #138 ) ;
#229 = EDGE_CURVE ( 'NONE', #194, #208, #121, .T. ) ;
#230 = EDGE_CURVE ( 'NONE', #188, #204, #94, .T. ) ;
#231 = EDGE_CURVE ( 'NONE', #188, #175, #91, .T. ) ;
#232 = EDGE_CURVE ( 'NONE', #208, #109, #123, .T. ) ;
#233 = ORIENTED_EDGE ( 'NONE', *, *, #137, .F. ) ;
#234 = ORIENTED_EDGE ( 'NONE', *, *, #231, .F. ) ;
#235 = CARTESIAN_POINT ( 'NONE',  ( -6.250000000000002700, 8.749999999999998200, 1.000000000000000000 ) ) ;
#236 = PERSON_AND_ORGANIZATION_ROLE ( 'design_supplier' ) ;
#237 = PLANE ( 'NONE',  #207 ) ;
ENDSEC;
END-ISO-10303-21;
