ISO-10303-21;
HEADER;
FILE_DESCRIPTION (( 'STEP AP203' ),
    '1' );
FILE_NAME ('Web Model 66755.STEP',
    '2017-01-31T19:39:13',
    ( '' ),
    ( '' ),
    'SwSTEP 2.0',
    'SolidWorks 2016',
    '' );
FILE_SCHEMA (( 'CONFIG_CONTROL_DESIGN' ));
ENDSEC;

DATA;
#1 = DIRECTION ( 'NONE',  ( 0.0000000000000000000, 0.0000000000000000000, 1.000000000000000000 ) ) ;
#2 = COORDINATED_UNIVERSAL_TIME_OFFSET ( 5, 0, .BEHIND. ) ;
#3 = APPROVAL ( #41, 'UNSPECIFIED' ) ;
#4 = APPROVAL_STATUS ( 'not_yet_approved' ) ;
#5 = B_SPLINE_CURVE_WITH_KNOTS ( 'NONE', 3,
 ( #108, #32, #129, #216 ),
 .UNSPECIFIED., .F., .F.,
 ( 4, 4 ),
 ( 0.0000000000000000000, 1.000000000000000000 ),
 .UNSPECIFIED. ) ;
#6 = CARTESIAN_POINT ( 'NONE',  ( 12.49999999999999800, 1.632765987455498600E-015, -4.000000000000000000 ) ) ;
#7 = ORIENTED_EDGE ( 'NONE', *, *, #229, .F. ) ;
#8 = DIRECTION ( 'NONE',  ( 0.0000000000000000000, 0.0000000000000000000, 1.000000000000000000 ) ) ;
#9 = CARTESIAN_POINT ( 'NONE',  ( 12.50000000000000000, 1.776356839400250100E-015, -4.000000000000000000 ) ) ;
#10 = DIRECTION ( 'NONE',  ( -1.000000000000000000, 0.0000000000000000000, -0.0000000000000000000 ) ) ;
#11 = CARTESIAN_POINT ( 'NONE',  ( -12.50000000000000400, 3.307165338334442200E-015, -0.0004332125114177249900 ) ) ;
#12 = CARTESIAN_POINT ( 'NONE',  ( 12.50000000000000000, -2.296212748401289900E-015, -0.0004332125114177249900 ) ) ;
#13 = CARTESIAN_POINT ( 'NONE',  ( 0.0000000000000000000, 0.0000000000000000000, 0.0000000000000000000 ) ) ;
#14 = ORIENTED_EDGE ( 'NONE', *, *, #174, .F. ) ;
#15 = CARTESIAN_POINT ( 'NONE',  ( -1.530808498934190100E-015, -12.50000000000000000, -0.0004332125114177249900 ) ) ;
#16 = CC_DESIGN_APPROVAL ( #3, ( #251 ) ) ;
#17 = CARTESIAN_POINT ( 'NONE',  ( 0.0000000000000000000, 8.333333367743710700, 0.0001444041657901910100 ) ) ;
#18 =( NAMED_UNIT ( * ) SI_UNIT ( $, .STERADIAN. ) SOLID_ANGLE_UNIT ( ) );
#19 = LOCAL_TIME ( 14, 39, 13.00000000000000000, #224 ) ;
#20 = ADVANCED_FACE ( 'NONE', ( #156 ), #204, .T. ) ;
#21 = CARTESIAN_POINT ( 'NONE',  ( -1.530808498934190100E-015, -12.50000000000000000, -0.0004332125114177249900 ) ) ;
#22 = APPROVAL_DATE_TIME ( #112, #172 ) ;
#23 = APPLICATION_CONTEXT ( 'configuration controlled 3d designs of mechanical parts and assemblies' ) ;
#24 = COORDINATED_UNIVERSAL_TIME_OFFSET ( 5, 0, .BEHIND. ) ;
#25 = APPROVAL_PERSON_ORGANIZATION ( #218, #3, #206 ) ;
#26 = CIRCLE ( 'NONE', #53, 12.50000000000000000 ) ;
#27 = CARTESIAN_POINT ( 'NONE',  ( -1.530808498934190100E-015, -12.49999999999999800, -0.0004332125114177249900 ) ) ;
#28 = CC_DESIGN_SECURITY_CLASSIFICATION ( #251, ( #230 ) ) ;
#29 = AXIS2_PLACEMENT_3D ( 'NONE', #255, #259, #105 ) ;
#30 = DIRECTION ( 'NONE',  ( 0.0000000000000000000, 0.0000000000000000000, 1.000000000000000000 ) ) ;
#31 = DIRECTION ( 'NONE',  ( 1.000000000000000000, 0.0000000000000000000, 0.0000000000000000000 ) ) ;
#32 = CARTESIAN_POINT ( 'NONE',  ( 0.0000000000000000000, 4.166666672293200000, 0.0000000000000000000 ) ) ;
#33 = PERSON_AND_ORGANIZATION ( #149, #141 ) ;
#34 = CARTESIAN_POINT ( 'NONE',  ( -8.333333367743710700, 8.333333367743710700, 0.0001444041657901910100 ) ) ;
#35 = CARTESIAN_POINT ( 'NONE',  ( 0.0000000000000000000, 8.333333367743710700, 0.0001444041657901910100 ) ) ;
#36 = CARTESIAN_POINT ( 'NONE',  ( 8.333333367743710700, 8.333333367743710700, 0.0001444041657901910100 ) ) ;
#37 = CARTESIAN_POINT ( 'NONE',  ( -12.50000000000000000, 7.654042494670959600E-016, -0.0004332125114177249900 ) ) ;
#38 = DIRECTION ( 'NONE',  ( 1.000000000000000000, 0.0000000000000000000, 0.0000000000000000000 ) ) ;
#39 = FACE_OUTER_BOUND ( 'NONE', #225, .T. ) ;
#40 = ORIENTED_EDGE ( 'NONE', *, *, #213, .F. ) ;
#41 = APPROVAL_STATUS ( 'not_yet_approved' ) ;
#42 = CC_DESIGN_PERSON_AND_ORGANIZATION_ASSIGNMENT ( #56, #181, ( #77 ) ) ;
#43 = VERTEX_POINT ( 'NONE', #11 ) ;
#44 = PERSON_AND_ORGANIZATION_ROLE ( 'creator' ) ;
#45 = AXIS2_PLACEMENT_3D ( 'NONE', #165, #100, #10 ) ;
#46 = ADVANCED_FACE ( 'NONE', ( #48 ), #162, .T. ) ;
#47 = LOCAL_TIME ( 14, 39, 13.00000000000000000, #2 ) ;
#48 = FACE_OUTER_BOUND ( 'NONE', #171, .T. ) ;
#49 = EDGE_CURVE ( 'NONE', #261, #43, #92, .T. ) ;
#50 = ORIENTED_EDGE ( 'NONE', *, *, #213, .T. ) ;
#51 = DIRECTION ( 'NONE',  ( -0.0000000000000000000, 0.0000000000000000000, 1.000000000000000000 ) ) ;
#52 = CARTESIAN_POINT ( 'NONE',  ( 0.0000000000000000000, 0.0000000000000000000, 0.0000000000000000000 ) ) ;
#53 = AXIS2_PLACEMENT_3D ( 'NONE', #119, #51, #185 ) ;
#54 = CARTESIAN_POINT ( 'NONE',  ( 0.0000000000000000000, 0.0000000000000000000, 0.0000000000000000000 ) ) ;
#55 = UNCERTAINTY_MEASURE_WITH_UNIT (LENGTH_MEASURE( 1.000000000000000100E-005 ), #283, 'distance_accuracy_value', 'NONE');
#56 = PERSON_AND_ORGANIZATION ( #149, #141 ) ;
#57 = CARTESIAN_POINT ( 'NONE',  ( 4.166666672293200000, -4.166666672293200000, 0.0000000000000000000 ) ) ;
#58 = EDGE_LOOP ( 'NONE', ( #256, #210, #96, #154 ) ) ;
#59 = PRODUCT_RELATED_PRODUCT_CATEGORY ( 'detail', '', ( #99 ) ) ;
#60 = CARTESIAN_POINT ( 'NONE',  ( -12.50000000000000000, 12.50000000000000000, -0.0004332125114177249900 ) ) ;
#61 = CARTESIAN_POINT ( 'NONE',  ( 0.0000000000000000000, 12.50000000000000000, -0.0004332125114177249900 ) ) ;
#62 = CARTESIAN_POINT ( 'NONE',  ( -1.020539003503520200E-015, -8.333333367743710700, 0.0001444041657901910100 ) ) ;
#63 = CALENDAR_DATE ( 2017, 31, 1 ) ;
#64 = EDGE_CURVE ( 'NONE', #120, #261, #142, .T. ) ;
#65 = CARTESIAN_POINT ( 'NONE',  ( 12.50000000000000000, 12.50000000000000000, -0.0004332125114177249900 ) ) ;
#66 = CARTESIAN_POINT ( 'NONE',  ( 0.0000000000000000000, 0.0000000000000000000, 0.0000000000000000000 ) ) ;
#67 = CARTESIAN_POINT ( 'NONE',  ( 4.166666672293200000, -4.166666672293200000, 0.0000000000000000000 ) ) ;
#68 = CYLINDRICAL_SURFACE ( 'NONE', #281, 12.50000000000000000 ) ;
#69 = ORIENTED_EDGE ( 'NONE', *, *, #229, .T. ) ;
#70 = DATE_TIME_ROLE ( 'classification_date' ) ;
#71 = PERSON_AND_ORGANIZATION_ROLE ( 'classification_officer' ) ;
#72 = DATE_AND_TIME ( #134, #190 ) ;
#73 = VECTOR ( 'NONE', #1, 1000.000000000000000 ) ;
#74 = CC_DESIGN_PERSON_AND_ORGANIZATION_ASSIGNMENT ( #91, #180, ( #230 ) ) ;
#75 = CARTESIAN_POINT ( 'NONE',  ( 0.0000000000000000000, 1.776356839400250100E-015, -4.000000000000000000 ) ) ;
#76 = PERSON_AND_ORGANIZATION ( #149, #141 ) ;
#77 = PRODUCT_DEFINITION ( 'UNKNOWN', '', #230, #262 ) ;
#78 = CARTESIAN_POINT ( 'NONE',  ( 0.0000000000000000000, 0.0000000000000000000, 0.0000000000000000000 ) ) ;
#79 = CARTESIAN_POINT ( 'NONE',  ( 12.50000000000000000, 12.50000000000000000, -0.0004332125114177249900 ) ) ;
#80 = LINE ( 'NONE', #9, #247 ) ;
#81 = CC_DESIGN_DATE_AND_TIME_ASSIGNMENT ( #170, #205, ( #77 ) ) ;
#82 = CARTESIAN_POINT ( 'NONE',  ( 0.0000000000000000000, 4.166666672293200000, 0.0000000000000000000 ) ) ;
#83 = AXIS2_PLACEMENT_3D ( 'NONE', #122, #164, #275 ) ;
#84 =( BOUNDED_SURFACE ( )  B_SPLINE_SURFACE ( 3, 2, ( 
 ( #166, #54, #78, #254, #233, #192, #212, #110, #85 ),
 ( #87, #152, #135, #241, #133, #67, #220, #109, #202 ),
 ( #35, #236, #265, #238, #62, #284, #111, #36, #199 ),
 ( #263, #266, #37, #114, #21, #240, #264, #65, #61 ) ),
 .UNSPECIFIED., .F., .T., .F. ) 
 B_SPLINE_SURFACE_WITH_KNOTS ( ( 4, 4 ),
 ( 3, 2, 2, 2, 3 ),
 ( 0.0000000000000000000, 1.000000000000000000 ),
 ( 0.0000000000000000000, 90.00000000000000000, 180.0000000000000000, 270.0000000000000000, 360.0000000000000000 ),
 .UNSPECIFIED. ) 
 GEOMETRIC_REPRESENTATION_ITEM ( )  RATIONAL_B_SPLINE_SURFACE ( (
 ( 1.000000000000000000, 0.7071067811865480200, 1.000000000000000000, 0.7071067811865480200, 1.000000000000000000, 0.7071067811865480200, 1.000000000000000000, 0.7071067811865480200, 1.000000000000000000),
 ( 1.000000000000000000, 0.7071067811865480200, 1.000000000000000000, 0.7071067811865480200, 1.000000000000000000, 0.7071067811865480200, 1.000000000000000000, 0.7071067811865480200, 1.000000000000000000),
 ( 1.000000000000000000, 0.7071067811865480200, 1.000000000000000000, 0.7071067811865480200, 1.000000000000000000, 0.7071067811865480200, 1.000000000000000000, 0.7071067811865480200, 1.000000000000000000),
 ( 1.000000000000000000, 0.7071067811865480200, 1.000000000000000000, 0.7071067811865480200, 1.000000000000000000, 0.7071067811865480200, 1.000000000000000000, 0.7071067811865480200, 1.000000000000000000) ) ) 
 REPRESENTATION_ITEM ( '' )  SURFACE ( )  );
#85 = CARTESIAN_POINT ( 'NONE',  ( 0.0000000000000000000, 0.0000000000000000000, 0.0000000000000000000 ) ) ;
#86 = VERTEX_POINT ( 'NONE', #231 ) ;
#87 = CARTESIAN_POINT ( 'NONE',  ( 0.0000000000000000000, 4.166666672293200000, 0.0000000000000000000 ) ) ;
#88 = CARTESIAN_POINT ( 'NONE',  ( -12.50000000000000000, 3.307165338334441800E-015, -4.000000000000000000 ) ) ;
#89 = AXIS2_PLACEMENT_3D ( 'NONE', #75, #8, #31 ) ;
#90 =( NAMED_UNIT ( * ) PLANE_ANGLE_UNIT ( ) SI_UNIT ( $, .RADIAN. ) );
#91 = PERSON_AND_ORGANIZATION ( #149, #141 ) ;
#92 = CIRCLE ( 'NONE', #131, 12.50000000000000000 ) ;
#93 = APPROVAL_ROLE ( '' ) ;
#94 = MECHANICAL_CONTEXT ( 'NONE', #237, 'mechanical' ) ;
#95 = ORIENTED_EDGE ( 'NONE', *, *, #285, .T. ) ;
#96 = ORIENTED_EDGE ( 'NONE', *, *, #49, .T. ) ;
#97 = EDGE_CURVE ( 'NONE', #183, #235, #26, .T. ) ;
#98 = CARTESIAN_POINT ( 'NONE',  ( 0.0000000000000000000, 0.0000000000000000000, 0.0000000000000000000 ) ) ;
#99 = PRODUCT ( 'Web Model 66755', 'Web Model 66755', '', ( #94 ) ) ;
#100 = DIRECTION ( 'NONE',  ( 0.0000000000000000000, 0.0000000000000000000, -1.000000000000000000 ) ) ;
#101 = CARTESIAN_POINT ( 'NONE',  ( -1.020539003503520200E-015, -8.333333367743710700, 0.0001444041657901910100 ) ) ;
#102 = CIRCLE ( 'NONE', #29, 12.50000000000000000 ) ;
#103 = AXIS2_PLACEMENT_3D ( 'NONE', #249, #144, #189 ) ;
#104 = CARTESIAN_POINT ( 'NONE',  ( 0.0000000000000000000, 0.0000000000000000000, 0.0000000000000000000 ) ) ;
#105 = DIRECTION ( 'NONE',  ( 1.000000000000000000, 0.0000000000000000000, 0.0000000000000000000 ) ) ;
#106 = PRODUCT_DEFINITION_SHAPE ( 'NONE', 'NONE',  #77 ) ;
#107 = CARTESIAN_POINT ( 'NONE',  ( 8.333333367743710700, -1.530808505255279900E-015, 0.0001444041657901910100 ) ) ;
#108 = CARTESIAN_POINT ( 'NONE',  ( 0.0000000000000000000, 0.0000000000000000000, 0.0000000000000000000 ) ) ;
#109 = CARTESIAN_POINT ( 'NONE',  ( 4.166666672293200000, 4.166666672293200000, 0.0000000000000000000 ) ) ;
#110 = CARTESIAN_POINT ( 'NONE',  ( 0.0000000000000000000, 0.0000000000000000000, 0.0000000000000000000 ) ) ;
#111 = CARTESIAN_POINT ( 'NONE',  ( 8.333333367743710700, -1.530808505255279900E-015, 0.0001444041657901910100 ) ) ;
#112 = DATE_AND_TIME ( #182, #19 ) ;
#113 = ORIENTED_EDGE ( 'NONE', *, *, #217, .F. ) ;
#114 = CARTESIAN_POINT ( 'NONE',  ( -12.50000000000000000, -12.50000000000000000, -0.0004332125114177249900 ) ) ;
#115 = APPROVAL_ROLE ( '' ) ;
#116 = EDGE_CURVE ( 'NONE', #183, #120, #80, .T. ) ;
#117 = APPLICATION_PROTOCOL_DEFINITION ( 'international standard', 'config_control_design', 1994, #23 ) ;
#118 = PERSON_AND_ORGANIZATION ( #149, #141 ) ;
#119 = CARTESIAN_POINT ( 'NONE',  ( -2.015468112189048300E-015, 1.632765987455498600E-015, -4.000000000000000000 ) ) ;
#120 = VERTEX_POINT ( 'NONE', #209 ) ;
#121 = CARTESIAN_POINT ( 'NONE',  ( -2.015468112189048300E-015, 1.632765987455498600E-015, -0.0004332125114177249900 ) ) ;
#122 = CARTESIAN_POINT ( 'NONE',  ( -2.015468112189048300E-015, 1.632765987455498600E-015, -0.0004332125114177249900 ) ) ;
#123 = LOCAL_TIME ( 14, 39, 13.00000000000000000, #239 ) ;
#124 = CARTESIAN_POINT ( 'NONE',  ( -12.50000000000000400, 3.307165338334442200E-015, -4.000000000000000000 ) ) ;
#125 = CARTESIAN_POINT ( 'NONE',  ( 0.0000000000000000000, 12.50000000000000000, -0.0004332125114177249900 ) ) ;
#126 = SHAPE_DEFINITION_REPRESENTATION ( #106, #273 ) ;
#127 = CARTESIAN_POINT ( 'NONE',  ( 8.333333367743710700, 8.333333367743710700, 0.0001444041657901910100 ) ) ;
#128 = ORIENTED_EDGE ( 'NONE', *, *, #97, .T. ) ;
#129 = CARTESIAN_POINT ( 'NONE',  ( 0.0000000000000000000, 8.333333367743710700, 0.0001444041657901910100 ) ) ;
#130 = EDGE_CURVE ( 'NONE', #43, #137, #268, .T. ) ;
#131 = AXIS2_PLACEMENT_3D ( 'NONE', #211, #274, #191 ) ;
#132 = CARTESIAN_POINT ( 'NONE',  ( -1.020539003503520200E-015, -8.333333367743710700, 0.0001444041657901910100 ) ) ;
#133 = CARTESIAN_POINT ( 'NONE',  ( -5.102695003337830200E-016, -4.166666672293200000, 0.0000000000000000000 ) ) ;
#134 = CALENDAR_DATE ( 2017, 31, 1 ) ;
#135 = CARTESIAN_POINT ( 'NONE',  ( -4.166666672293200000, 2.551347501668910200E-016, 0.0000000000000000000 ) ) ;
#136 = APPROVAL_PERSON_ORGANIZATION ( #76, #172, #93 ) ;
#137 = VERTEX_POINT ( 'NONE', #27 ) ;
#138 = SECURITY_CLASSIFICATION_LEVEL ( 'unclassified' ) ;
#139 = DIRECTION ( 'NONE',  ( 1.000000000000000000, 0.0000000000000000000, 0.0000000000000000000 ) ) ;
#140 = COORDINATED_UNIVERSAL_TIME_OFFSET ( 5, 0, .BEHIND. ) ;
#141 = ORGANIZATION ( 'UNSPECIFIED', 'UNSPECIFIED', '' ) ;
#142 = CIRCLE ( 'NONE', #159, 12.50000000000000000 ) ;
#143 = ORIENTED_EDGE ( 'NONE', *, *, #116, .F. ) ;
#144 = DIRECTION ( 'NONE',  ( -0.0000000000000000000, 0.0000000000000000000, 1.000000000000000000 ) ) ;
#145 = CARTESIAN_POINT ( 'NONE',  ( 0.0000000000000000000, 8.333333367743710700, 0.0001444041657901910100 ) ) ;
#146 = CARTESIAN_POINT ( 'NONE',  ( 4.166666672293200000, 4.166666672293200000, 0.0000000000000000000 ) ) ;
#147 = APPROVAL_PERSON_ORGANIZATION ( #33, #193, #115 ) ;
#148 = ORIENTED_EDGE ( 'NONE', *, *, #116, .T. ) ;
#149 = PERSON ( 'UNSPECIFIED', 'UNSPECIFIED', 'UNSPECIFIED', ('UNSPECIFIED'), ('UNSPECIFIED'), ('UNSPECIFIED') ) ;
#150 = CARTESIAN_POINT ( 'NONE',  ( -4.166666672293200000, 4.166666672293200000, 0.0000000000000000000 ) ) ;
#151 = CARTESIAN_POINT ( 'NONE',  ( -1.530808498934190100E-015, -12.49999999999999800, -0.0004332125114177249900 ) ) ;
#152 = CARTESIAN_POINT ( 'NONE',  ( -4.166666672293200000, 4.166666672293200000, 0.0000000000000000000 ) ) ;
#153 = PERSON_AND_ORGANIZATION ( #149, #141 ) ;
#154 = ORIENTED_EDGE ( 'NONE', *, *, #130, .T. ) ;
#155 = APPLICATION_PROTOCOL_DEFINITION ( 'international standard', 'config_control_design', 1994, #237 ) ;
#156 = FACE_OUTER_BOUND ( 'NONE', #222, .T. ) ;
#157 = CC_DESIGN_PERSON_AND_ORGANIZATION_ASSIGNMENT ( #118, #158, ( #99 ) ) ;
#158 = PERSON_AND_ORGANIZATION_ROLE ( 'design_owner' ) ;
#159 = AXIS2_PLACEMENT_3D ( 'NONE', #121, #248, #188 ) ;
#160 = CARTESIAN_POINT ( 'NONE',  ( 0.0000000000000000000, 0.0000000000000000000, 0.0000000000000000000 ) ) ;
#161 = DATE_AND_TIME ( #63, #123 ) ;
#162 = PLANE ( 'NONE',  #45 ) ;
#163 = ORIENTED_EDGE ( 'NONE', *, *, #130, .F. ) ;
#164 = DIRECTION ( 'NONE',  ( -0.0000000000000000000, 0.0000000000000000000, 1.000000000000000000 ) ) ;
#165 = CARTESIAN_POINT ( 'NONE',  ( -25.70400000000000100, 0.0000000000000000000, -4.000000000000000000 ) ) ;
#166 = CARTESIAN_POINT ( 'NONE',  ( 0.0000000000000000000, 0.0000000000000000000, 0.0000000000000000000 ) ) ;
#167 = ORIENTED_EDGE ( 'NONE', *, *, #174, .T. ) ;
#168 = CARTESIAN_POINT ( 'NONE',  ( -4.166666672293200000, -4.166666672293200000, 0.0000000000000000000 ) ) ;
#169 = CARTESIAN_POINT ( 'NONE',  ( -12.50000000000000000, 7.654042494670959600E-016, -0.0004332125114177249900 ) ) ;
#170 = DATE_AND_TIME ( #194, #47 ) ;
#171 = EDGE_LOOP ( 'NONE', ( #278, #40 ) ) ;
#172 = APPROVAL ( #4, 'UNSPECIFIED' ) ;
#173 = CARTESIAN_POINT ( 'NONE',  ( 0.0000000000000000000, 1.776356839400250100E-015, -4.000000000000000000 ) ) ;
#174 = EDGE_CURVE ( 'NONE', #137, #120, #242, .T. ) ;
#175 = CARTESIAN_POINT ( 'NONE',  ( 3.851859888774471700E-031, 12.50000000000000400, -0.0004332125114177249900 ) ) ;
#176 = DIRECTION ( 'NONE',  ( 0.0000000000000000000, 0.0000000000000000000, 1.000000000000000000 ) ) ;
#177 = MANIFOLD_SOLID_BREP ( 'Imported1', #271 ) ;
#178 = AXIS2_PLACEMENT_3D ( 'NONE', #66, #221, #139 ) ;
#179 = ORIENTED_EDGE ( 'NONE', *, *, #49, .F. ) ;
#180 = PERSON_AND_ORGANIZATION_ROLE ( 'design_supplier' ) ;
#181 = PERSON_AND_ORGANIZATION_ROLE ( 'creator' ) ;
#182 = CALENDAR_DATE ( 2017, 31, 1 ) ;
#183 = VERTEX_POINT ( 'NONE', #6 ) ;
#184 = CARTESIAN_POINT ( 'NONE',  ( 0.0000000000000000000, 0.0000000000000000000, 0.0000000000000000000 ) ) ;
#185 = DIRECTION ( 'NONE',  ( 1.000000000000000000, 0.0000000000000000000, 0.0000000000000000000 ) ) ;
#186 = B_SPLINE_CURVE_WITH_KNOTS ( 'NONE', 3,
 ( #200, #260, #132, #151 ),
 .UNSPECIFIED., .F., .F.,
 ( 4, 4 ),
 ( 0.0000000000000000000, 1.000000000000000000 ),
 .UNSPECIFIED. ) ;
#187 = CC_DESIGN_APPROVAL ( #172, ( #77 ) ) ;
#188 = DIRECTION ( 'NONE',  ( 1.000000000000000000, 0.0000000000000000000, 0.0000000000000000000 ) ) ;
#189 = DIRECTION ( 'NONE',  ( 1.000000000000000000, 0.0000000000000000000, 0.0000000000000000000 ) ) ;
#190 = LOCAL_TIME ( 14, 39, 13.00000000000000000, #140 ) ;
#191 = DIRECTION ( 'NONE',  ( 1.000000000000000000, 0.0000000000000000000, 0.0000000000000000000 ) ) ;
#192 = CARTESIAN_POINT ( 'NONE',  ( 0.0000000000000000000, 0.0000000000000000000, 0.0000000000000000000 ) ) ;
#193 = APPROVAL ( #243, 'UNSPECIFIED' ) ;
#194 = CALENDAR_DATE ( 2017, 31, 1 ) ;
#195 = CARTESIAN_POINT ( 'NONE',  ( -8.333333367743710700, -8.333333367743710700, 0.0001444041657901910100 ) ) ;
#196 = CARTESIAN_POINT ( 'NONE',  ( 12.50000000000000000, -12.50000000000000000, -0.0004332125114177249900 ) ) ;
#197 = CARTESIAN_POINT ( 'NONE',  ( -5.102695003337830200E-016, -4.166666672293200000, 0.0000000000000000000 ) ) ;
#198 = APPROVAL_DATE_TIME ( #246, #193 ) ;
#199 = CARTESIAN_POINT ( 'NONE',  ( 0.0000000000000000000, 8.333333367743710700, 0.0001444041657901910100 ) ) ;
#200 = CARTESIAN_POINT ( 'NONE',  ( 0.0000000000000000000, 0.0000000000000000000, 0.0000000000000000000 ) ) ;
#201 = ADVANCED_FACE ( 'NONE', ( #226 ), #245, .T. ) ;
#202 = CARTESIAN_POINT ( 'NONE',  ( 0.0000000000000000000, 4.166666672293200000, 0.0000000000000000000 ) ) ;
#203 = FACE_OUTER_BOUND ( 'NONE', #219, .T. ) ;
#204 = CYLINDRICAL_SURFACE ( 'NONE', #89, 12.50000000000000000 ) ;
#205 = DATE_TIME_ROLE ( 'creation_date' ) ;
#206 = APPROVAL_ROLE ( '' ) ;
#207 = APPROVAL_DATE_TIME ( #161, #3 ) ;
#208 = ORIENTED_EDGE ( 'NONE', *, *, #64, .T. ) ;
#209 = CARTESIAN_POINT ( 'NONE',  ( 12.49999999999999800, 1.632765987455498600E-015, -0.0004332125114177249900 ) ) ;
#210 = ORIENTED_EDGE ( 'NONE', *, *, #217, .T. ) ;
#211 = CARTESIAN_POINT ( 'NONE',  ( -2.015468112189048300E-015, 1.632765987455498600E-015, -0.0004332125114177249900 ) ) ;
#212 = CARTESIAN_POINT ( 'NONE',  ( 0.0000000000000000000, 0.0000000000000000000, 0.0000000000000000000 ) ) ;
#213 = EDGE_CURVE ( 'NONE', #235, #183, #102, .T. ) ;
#214 = LOCAL_TIME ( 14, 39, 13.00000000000000000, #24 ) ;
#215 = CARTESIAN_POINT ( 'NONE',  ( 8.333333367743710700, -8.333333367743710700, 0.0001444041657901910100 ) ) ;
#216 = CARTESIAN_POINT ( 'NONE',  ( 3.851859888774471700E-031, 12.50000000000000400, -0.0004332125114177249900 ) ) ;
#217 = EDGE_CURVE ( 'NONE', #86, #261, #5, .T. ) ;
#218 = PERSON_AND_ORGANIZATION ( #149, #141 ) ;
#219 = EDGE_LOOP ( 'NONE', ( #113, #95, #167, #208 ) ) ;
#220 = CARTESIAN_POINT ( 'NONE',  ( 4.166666672293200000, -7.654042505006740400E-016, 0.0000000000000000000 ) ) ;
#221 = DIRECTION ( 'NONE',  ( 0.0000000000000000000, 0.0000000000000000000, 1.000000000000000000 ) ) ;
#222 = EDGE_LOOP ( 'NONE', ( #7, #50, #148, #14, #163 ) ) ;
#223 = ADVANCED_FACE ( 'NONE', ( #203 ), #84, .T. ) ;
#224 = COORDINATED_UNIVERSAL_TIME_OFFSET ( 5, 0, .BEHIND. ) ;
#225 = EDGE_LOOP ( 'NONE', ( #128, #69, #179, #272, #143 ) ) ;
#226 = FACE_OUTER_BOUND ( 'NONE', #58, .T. ) ;
#227 = CC_DESIGN_PERSON_AND_ORGANIZATION_ASSIGNMENT ( #277, #71, ( #251 ) ) ;
#228 = CARTESIAN_POINT ( 'NONE',  ( 0.0000000000000000000, 0.0000000000000000000, 0.0000000000000000000 ) ) ;
#229 = EDGE_CURVE ( 'NONE', #235, #43, #267, .T. ) ;
#230 = PRODUCT_DEFINITION_FORMATION_WITH_SPECIFIED_SOURCE ( 'ANY', '', #99, .NOT_KNOWN. ) ;
#231 = CARTESIAN_POINT ( 'NONE',  ( 0.0000000000000000000, 0.0000000000000000000, 0.0000000000000000000 ) ) ;
#232 = CARTESIAN_POINT ( 'NONE',  ( 0.0000000000000000000, 4.166666672293200000, 0.0000000000000000000 ) ) ;
#233 = CARTESIAN_POINT ( 'NONE',  ( 0.0000000000000000000, 0.0000000000000000000, 0.0000000000000000000 ) ) ;
#234 = CARTESIAN_POINT ( 'NONE',  ( -4.166666672293200000, 2.551347501668910200E-016, 0.0000000000000000000 ) ) ;
#235 = VERTEX_POINT ( 'NONE', #124 ) ;
#236 = CARTESIAN_POINT ( 'NONE',  ( -8.333333367743710700, 8.333333367743710700, 0.0001444041657901910100 ) ) ;
#237 = APPLICATION_CONTEXT ( 'configuration controlled 3d designs of mechanical parts and assemblies' ) ;
#238 = CARTESIAN_POINT ( 'NONE',  ( -8.333333367743710700, -8.333333367743710700, 0.0001444041657901910100 ) ) ;
#239 = COORDINATED_UNIVERSAL_TIME_OFFSET ( 5, 0, .BEHIND. ) ;
#240 = CARTESIAN_POINT ( 'NONE',  ( 12.50000000000000000, -12.50000000000000000, -0.0004332125114177249900 ) ) ;
#241 = CARTESIAN_POINT ( 'NONE',  ( -4.166666672293200000, -4.166666672293200000, 0.0000000000000000000 ) ) ;
#242 = CIRCLE ( 'NONE', #83, 12.50000000000000000 ) ;
#243 = APPROVAL_STATUS ( 'not_yet_approved' ) ;
#244 = CC_DESIGN_PERSON_AND_ORGANIZATION_ASSIGNMENT ( #153, #44, ( #230 ) ) ;
#245 =( BOUNDED_SURFACE ( )  B_SPLINE_SURFACE ( 3, 2, ( 
 ( #252, #160, #184, #228, #98, #52, #250, #13, #104 ),
 ( #232, #150, #234, #168, #197, #57, #276, #146, #82 ),
 ( #17, #34, #282, #195, #101, #215, #107, #127, #145 ),
 ( #257, #60, #169, #280, #15, #196, #12, #79, #125 ) ),
 .UNSPECIFIED., .F., .T., .F. ) 
 B_SPLINE_SURFACE_WITH_KNOTS ( ( 4, 4 ),
 ( 3, 2, 2, 2, 3 ),
 ( 0.0000000000000000000, 1.000000000000000000 ),
 ( 0.0000000000000000000, 90.00000000000000000, 180.0000000000000000, 270.0000000000000000, 360.0000000000000000 ),
 .UNSPECIFIED. ) 
 GEOMETRIC_REPRESENTATION_ITEM ( )  RATIONAL_B_SPLINE_SURFACE ( (
 ( 1.000000000000000000, 0.7071067811865480200, 1.000000000000000000, 0.7071067811865480200, 1.000000000000000000, 0.7071067811865480200, 1.000000000000000000, 0.7071067811865480200, 1.000000000000000000),
 ( 1.000000000000000000, 0.7071067811865480200, 1.000000000000000000, 0.7071067811865480200, 1.000000000000000000, 0.7071067811865480200, 1.000000000000000000, 0.7071067811865480200, 1.000000000000000000),
 ( 1.000000000000000000, 0.7071067811865480200, 1.000000000000000000, 0.7071067811865480200, 1.000000000000000000, 0.7071067811865480200, 1.000000000000000000, 0.7071067811865480200, 1.000000000000000000),
 ( 1.000000000000000000, 0.7071067811865480200, 1.000000000000000000, 0.7071067811865480200, 1.000000000000000000, 0.7071067811865480200, 1.000000000000000000, 0.7071067811865480200, 1.000000000000000000) ) ) 
 REPRESENTATION_ITEM ( '' )  SURFACE ( )  );
#246 = DATE_AND_TIME ( #253, #214 ) ;
#247 = VECTOR ( 'NONE', #30, 1000.000000000000000 ) ;
#248 = DIRECTION ( 'NONE',  ( -0.0000000000000000000, 0.0000000000000000000, 1.000000000000000000 ) ) ;
#249 = CARTESIAN_POINT ( 'NONE',  ( -2.015468112189048300E-015, 1.632765987455498600E-015, -0.0004332125114177249900 ) ) ;
#250 = CARTESIAN_POINT ( 'NONE',  ( 0.0000000000000000000, 0.0000000000000000000, 0.0000000000000000000 ) ) ;
#251 = SECURITY_CLASSIFICATION ( '', '', #138 ) ;
#252 = CARTESIAN_POINT ( 'NONE',  ( 0.0000000000000000000, 0.0000000000000000000, 0.0000000000000000000 ) ) ;
#253 = CALENDAR_DATE ( 2017, 31, 1 ) ;
#254 = CARTESIAN_POINT ( 'NONE',  ( 0.0000000000000000000, 0.0000000000000000000, 0.0000000000000000000 ) ) ;
#255 = CARTESIAN_POINT ( 'NONE',  ( -2.015468112189048300E-015, 1.632765987455498600E-015, -4.000000000000000000 ) ) ;
#256 = ORIENTED_EDGE ( 'NONE', *, *, #285, .F. ) ;
#257 = CARTESIAN_POINT ( 'NONE',  ( 0.0000000000000000000, 12.50000000000000000, -0.0004332125114177249900 ) ) ;
#258 = CC_DESIGN_DATE_AND_TIME_ASSIGNMENT ( #72, #70, ( #251 ) ) ;
#259 = DIRECTION ( 'NONE',  ( -0.0000000000000000000, 0.0000000000000000000, 1.000000000000000000 ) ) ;
#260 = CARTESIAN_POINT ( 'NONE',  ( -5.102695003337830200E-016, -4.166666672293200000, 0.0000000000000000000 ) ) ;
#261 = VERTEX_POINT ( 'NONE', #175 ) ;
#262 = DESIGN_CONTEXT ( 'detailed design', #23, 'design' ) ;
#263 = CARTESIAN_POINT ( 'NONE',  ( 0.0000000000000000000, 12.50000000000000000, -0.0004332125114177249900 ) ) ;
#264 = CARTESIAN_POINT ( 'NONE',  ( 12.50000000000000000, -2.296212748401289900E-015, -0.0004332125114177249900 ) ) ;
#265 = CARTESIAN_POINT ( 'NONE',  ( -8.333333367743710700, 5.102695017517590200E-016, 0.0001444041657901910100 ) ) ;
#266 = CARTESIAN_POINT ( 'NONE',  ( -12.50000000000000000, 12.50000000000000000, -0.0004332125114177249900 ) ) ;
#267 = LINE ( 'NONE', #88, #73 ) ;
#268 = CIRCLE ( 'NONE', #103, 12.50000000000000000 ) ;
#269 = ADVANCED_FACE ( 'NONE', ( #39 ), #68, .T. ) ;
#270 =( GEOMETRIC_REPRESENTATION_CONTEXT ( 3 ) GLOBAL_UNCERTAINTY_ASSIGNED_CONTEXT ( ( #55 ) ) GLOBAL_UNIT_ASSIGNED_CONTEXT ( ( #283, #90, #18 ) ) REPRESENTATION_CONTEXT ( 'NONE', 'WORKASPACE' ) );
#271 = CLOSED_SHELL ( 'NONE', ( #223, #269, #201, #46, #20 ) ) ;
#272 = ORIENTED_EDGE ( 'NONE', *, *, #64, .F. ) ;
#273 = ADVANCED_BREP_SHAPE_REPRESENTATION ( 'Web Model 66755', ( #177, #178 ), #270 ) ;
#274 = DIRECTION ( 'NONE',  ( -0.0000000000000000000, 0.0000000000000000000, 1.000000000000000000 ) ) ;
#275 = DIRECTION ( 'NONE',  ( 1.000000000000000000, 0.0000000000000000000, 0.0000000000000000000 ) ) ;
#276 = CARTESIAN_POINT ( 'NONE',  ( 4.166666672293200000, -7.654042505006740400E-016, 0.0000000000000000000 ) ) ;
#277 = PERSON_AND_ORGANIZATION ( #149, #141 ) ;
#278 = ORIENTED_EDGE ( 'NONE', *, *, #97, .F. ) ;
#279 = CC_DESIGN_APPROVAL ( #193, ( #230 ) ) ;
#280 = CARTESIAN_POINT ( 'NONE',  ( -12.50000000000000000, -12.50000000000000000, -0.0004332125114177249900 ) ) ;
#281 = AXIS2_PLACEMENT_3D ( 'NONE', #173, #176, #38 ) ;
#282 = CARTESIAN_POINT ( 'NONE',  ( -8.333333367743710700, 5.102695017517590200E-016, 0.0001444041657901910100 ) ) ;
#283 =( LENGTH_UNIT ( ) NAMED_UNIT ( * ) SI_UNIT ( .MILLI., .METRE. ) );
#284 = CARTESIAN_POINT ( 'NONE',  ( 8.333333367743710700, -8.333333367743710700, 0.0001444041657901910100 ) ) ;
#285 = EDGE_CURVE ( 'NONE', #86, #137, #186, .T. ) ;
ENDSEC;
END-ISO-10303-21;
