ISO-10303-21;
HEADER;
FILE_DESCRIPTION (( 'STEP AP203' ),
    '1' );
FILE_NAME ('Web Model 64409.STEP',
    '2017-01-31T19:06:57',
    ( '' ),
    ( '' ),
    'SwSTEP 2.0',
    'SolidWorks 2016',
    '' );
FILE_SCHEMA (( 'CONFIG_CONTROL_DESIGN' ));
ENDSEC;

DATA;
#1 = CARTESIAN_POINT ( 'NONE',  ( -42.49999999999999300, -30.00000000000000000, 0.0000000000000000000 ) ) ;
#2 = COORDINATED_UNIVERSAL_TIME_OFFSET ( 5, 0, .BEHIND. ) ;
#3 = APPROVAL ( #41, 'UNSPECIFIED' ) ;
#4 = CARTESIAN_POINT ( 'NONE',  ( 42.49999999999999300, 30.00000000000000000, 0.0000000000000000000 ) ) ;
#5 = CARTESIAN_POINT ( 'NONE',  ( -42.50000000000000700, 30.00000000000000000, -1.000000000000000000 ) ) ;
#6 = AXIS2_PLACEMENT_3D ( 'NONE', #134, #20, #170 ) ;
#7 = COORDINATED_UNIVERSAL_TIME_OFFSET ( 5, 0, .BEHIND. ) ;
#8 = EDGE_CURVE ( 'NONE', #181, #33, #119, .T. ) ;
#9 = VERTEX_POINT ( 'NONE', #218 ) ;
#10 =( NAMED_UNIT ( * ) PLANE_ANGLE_UNIT ( ) SI_UNIT ( $, .RADIAN. ) );
#11 = DIRECTION ( 'NONE',  ( 1.000000000000000000, 0.0000000000000000000, 0.0000000000000000000 ) ) ;
#12 = ORIENTED_EDGE ( 'NONE', *, *, #176, .T. ) ;
#13 = CALENDAR_DATE ( 2017, 31, 1 ) ;
#14 = CALENDAR_DATE ( 2017, 31, 1 ) ;
#15 = CC_DESIGN_DATE_AND_TIME_ASSIGNMENT ( #85, #177, ( #186 ) ) ;
#16 = LINE ( 'NONE', #17, #86 ) ;
#17 = CARTESIAN_POINT ( 'NONE',  ( -42.49999999999999300, -30.00000000000000000, 0.0000000000000000000 ) ) ;
#18 = EDGE_LOOP ( 'NONE', ( #80, #111, #175, #136 ) ) ;
#19 = EDGE_CURVE ( 'NONE', #92, #33, #97, .T. ) ;
#20 = DIRECTION ( 'NONE',  ( -0.0000000000000000000, 0.0000000000000000000, 1.000000000000000000 ) ) ;
#21 = DIRECTION ( 'NONE',  ( 0.0000000000000000000, -0.0000000000000000000, 1.000000000000000000 ) ) ;
#22 =( LENGTH_UNIT ( ) NAMED_UNIT ( * ) SI_UNIT ( .MILLI., .METRE. ) );
#23 = AXIS2_PLACEMENT_3D ( 'NONE', #226, #110, #21 ) ;
#24 = PERSON_AND_ORGANIZATION_ROLE ( 'design_supplier' ) ;
#25 = VECTOR ( 'NONE', #83, 1000.000000000000000 ) ;
#26 = APPROVAL_ROLE ( '' ) ;
#27 = DATE_AND_TIME ( #228, #152 ) ;
#28 = LINE ( 'NONE', #103, #68 ) ;
#29 =( GEOMETRIC_REPRESENTATION_CONTEXT ( 3 ) GLOBAL_UNCERTAINTY_ASSIGNED_CONTEXT ( ( #99 ) ) GLOBAL_UNIT_ASSIGNED_CONTEXT ( ( #22, #10, #142 ) ) REPRESENTATION_CONTEXT ( 'NONE', 'WORKASPACE' ) );
#30 = CLOSED_SHELL ( 'NONE', ( #219, #129, #130, #221, #165, #87 ) ) ;
#31 = COORDINATED_UNIVERSAL_TIME_OFFSET ( 5, 0, .BEHIND. ) ;
#32 = VECTOR ( 'NONE', #202, 1000.000000000000000 ) ;
#33 = VERTEX_POINT ( 'NONE', #163 ) ;
#34 = ORGANIZATION ( 'UNSPECIFIED', 'UNSPECIFIED', '' ) ;
#35 = PERSON_AND_ORGANIZATION ( #62, #34 ) ;
#36 = DIRECTION ( 'NONE',  ( 1.000000000000000000, 2.312964634635743400E-016, -0.0000000000000000000 ) ) ;
#37 = DATE_TIME_ROLE ( 'classification_date' ) ;
#38 = ORIENTED_EDGE ( 'NONE', *, *, #19, .F. ) ;
#39 = APPROVAL_STATUS ( 'not_yet_approved' ) ;
#40 = PERSON_AND_ORGANIZATION ( #62, #34 ) ;
#41 = APPROVAL_STATUS ( 'not_yet_approved' ) ;
#42 = CARTESIAN_POINT ( 'NONE',  ( -42.50000000000000700, 30.00000000000000000, -1.000000000000000000 ) ) ;
#43 = LOCAL_TIME ( 14, 6, 57.00000000000000000, #2 ) ;
#44 = AXIS2_PLACEMENT_3D ( 'NONE', #209, #70, #206 ) ;
#45 = EDGE_LOOP ( 'NONE', ( #75, #153, #101, #12 ) ) ;
#46 = CARTESIAN_POINT ( 'NONE',  ( 42.50000000000000700, -29.99999999999999600, -1.000000000000000000 ) ) ;
#47 = ORIENTED_EDGE ( 'NONE', *, *, #118, .T. ) ;
#48 = PLANE ( 'NONE',  #44 ) ;
#49 = SECURITY_CLASSIFICATION ( '', '', #59 ) ;
#50 = CARTESIAN_POINT ( 'NONE',  ( -42.50000000000000700, 30.00000000000000000, 0.0000000000000000000 ) ) ;
#51 = CARTESIAN_POINT ( 'NONE',  ( 42.50000000000000700, -29.99999999999999600, -1.000000000000000000 ) ) ;
#52 = DATE_AND_TIME ( #178, #161 ) ;
#53 = PERSON_AND_ORGANIZATION ( #62, #34 ) ;
#54 = EDGE_CURVE ( 'NONE', #9, #181, #28, .T. ) ;
#55 = DIRECTION ( 'NONE',  ( -2.312964634635743400E-016, 1.000000000000000000, 0.0000000000000000000 ) ) ;
#56 = ORIENTED_EDGE ( 'NONE', *, *, #81, .F. ) ;
#57 = VERTEX_POINT ( 'NONE', #46 ) ;
#58 = CARTESIAN_POINT ( 'NONE',  ( -42.49999999999999300, -30.00000000000000000, -1.000000000000000000 ) ) ;
#59 = SECURITY_CLASSIFICATION_LEVEL ( 'unclassified' ) ;
#60 = APPROVAL_STATUS ( 'not_yet_approved' ) ;
#61 = EDGE_LOOP ( 'NONE', ( #225, #56, #88, #143 ) ) ;
#62 = PERSON ( 'UNSPECIFIED', 'UNSPECIFIED', 'UNSPECIFIED', ('UNSPECIFIED'), ('UNSPECIFIED'), ('UNSPECIFIED') ) ;
#63 = AXIS2_PLACEMENT_3D ( 'NONE', #157, #133, #11 ) ;
#64 = VERTEX_POINT ( 'NONE', #4 ) ;
#65 = DESIGN_CONTEXT ( 'detailed design', #77, 'design' ) ;
#66 = CC_DESIGN_PERSON_AND_ORGANIZATION_ASSIGNMENT ( #231, #140, ( #186 ) ) ;
#67 = CARTESIAN_POINT ( 'NONE',  ( -42.50000000000000700, 30.00000000000000000, 0.0000000000000000000 ) ) ;
#68 = VECTOR ( 'NONE', #236, 1000.000000000000000 ) ;
#69 = EDGE_CURVE ( 'NONE', #64, #92, #185, .T. ) ;
#70 = DIRECTION ( 'NONE',  ( -1.000000000000000000, -2.312964634635743400E-016, 0.0000000000000000000 ) ) ;
#71 = VECTOR ( 'NONE', #189, 1000.000000000000000 ) ;
#72 = EDGE_CURVE ( 'NONE', #181, #57, #217, .T. ) ;
#73 = DATE_AND_TIME ( #14, #205 ) ;
#74 = CARTESIAN_POINT ( 'NONE',  ( 42.49999999999999300, 30.00000000000000000, -1.000000000000000000 ) ) ;
#75 = ORIENTED_EDGE ( 'NONE', *, *, #118, .F. ) ;
#76 = DIRECTION ( 'NONE',  ( -1.000000000000000000, -0.0000000000000000000, -0.0000000000000000000 ) ) ;
#77 = APPLICATION_CONTEXT ( 'configuration controlled 3d designs of mechanical parts and assemblies' ) ;
#78 = CC_DESIGN_APPROVAL ( #98, ( #151 ) ) ;
#79 = APPROVAL_DATE_TIME ( #27, #191 ) ;
#80 = ORIENTED_EDGE ( 'NONE', *, *, #203, .F. ) ;
#81 = EDGE_CURVE ( 'NONE', #126, #64, #113, .T. ) ;
#82 = CC_DESIGN_APPROVAL ( #3, ( #186 ) ) ;
#83 = DIRECTION ( 'NONE',  ( -1.000000000000000000, -0.0000000000000000000, -0.0000000000000000000 ) ) ;
#84 = EDGE_CURVE ( 'NONE', #57, #126, #164, .T. ) ;
#85 = DATE_AND_TIME ( #141, #43 ) ;
#86 = VECTOR ( 'NONE', #237, 1000.000000000000000 ) ;
#87 = ADVANCED_FACE ( 'NONE', ( #123 ), #89, .T. ) ;
#88 = ORIENTED_EDGE ( 'NONE', *, *, #223, .T. ) ;
#89 = PLANE ( 'NONE',  #227 ) ;
#90 = PLANE ( 'NONE',  #235 ) ;
#91 = ORIENTED_EDGE ( 'NONE', *, *, #84, .F. ) ;
#92 = VERTEX_POINT ( 'NONE', #224 ) ;
#93 = APPROVAL_DATE_TIME ( #52, #98 ) ;
#94 = DIRECTION ( 'NONE',  ( 1.000000000000000000, 0.0000000000000000000, 0.0000000000000000000 ) ) ;
#95 = APPROVAL_DATE_TIME ( #147, #3 ) ;
#96 = CC_DESIGN_PERSON_AND_ORGANIZATION_ASSIGNMENT ( #155, #160, ( #151 ) ) ;
#97 = LINE ( 'NONE', #67, #32 ) ;
#98 = APPROVAL ( #39, 'UNSPECIFIED' ) ;
#99 = UNCERTAINTY_MEASURE_WITH_UNIT (LENGTH_MEASURE( 1.000000000000000100E-005 ), #22, 'distance_accuracy_value', 'NONE');
#100 = ORIENTED_EDGE ( 'NONE', *, *, #216, .F. ) ;
#101 = ORIENTED_EDGE ( 'NONE', *, *, #72, .T. ) ;
#102 = AXIS2_PLACEMENT_3D ( 'NONE', #131, #127, #167 ) ;
#103 = CARTESIAN_POINT ( 'NONE',  ( -42.50000000000000700, 30.00000000000000000, -1.000000000000000000 ) ) ;
#104 = MANIFOLD_SOLID_BREP ( 'Extrude1', #30 ) ;
#105 = PRODUCT_DEFINITION_SHAPE ( 'NONE', 'NONE',  #186 ) ;
#106 = CC_DESIGN_PERSON_AND_ORGANIZATION_ASSIGNMENT ( #213, #215, ( #49 ) ) ;
#107 = EDGE_LOOP ( 'NONE', ( #171, #47, #150, #149 ) ) ;
#108 = LINE ( 'NONE', #5, #112 ) ;
#109 = CARTESIAN_POINT ( 'NONE',  ( 42.49999999999999300, 30.00000000000000000, -1.000000000000000000 ) ) ;
#110 = DIRECTION ( 'NONE',  ( 0.0000000000000000000, 1.000000000000000000, 0.0000000000000000000 ) ) ;
#111 = ORIENTED_EDGE ( 'NONE', *, *, #176, .F. ) ;
#112 = VECTOR ( 'NONE', #76, 1000.000000000000000 ) ;
#113 = LINE ( 'NONE', #156, #71 ) ;
#114 = APPLICATION_PROTOCOL_DEFINITION ( 'international standard', 'config_control_design', 1994, #117 ) ;
#115 = APPLICATION_PROTOCOL_DEFINITION ( 'international standard', 'config_control_design', 1994, #77 ) ;
#116 = VECTOR ( 'NONE', #135, 1000.000000000000000 ) ;
#117 = APPLICATION_CONTEXT ( 'configuration controlled 3d designs of mechanical parts and assemblies' ) ;
#118 = EDGE_CURVE ( 'NONE', #33, #210, #16, .T. ) ;
#119 = LINE ( 'NONE', #146, #168 ) ;
#120 = CC_DESIGN_DATE_AND_TIME_ASSIGNMENT ( #73, #37, ( #49 ) ) ;
#121 = LOCAL_TIME ( 14, 6, 57.00000000000000000, #7 ) ;
#122 = FACE_OUTER_BOUND ( 'NONE', #208, .T. ) ;
#123 = FACE_OUTER_BOUND ( 'NONE', #107, .T. ) ;
#124 = COORDINATED_UNIVERSAL_TIME_OFFSET ( 5, 0, .BEHIND. ) ;
#125 = FACE_OUTER_BOUND ( 'NONE', #18, .T. ) ;
#126 = VERTEX_POINT ( 'NONE', #74 ) ;
#127 = DIRECTION ( 'NONE',  ( 4.081702296416016400E-017, -1.000000000000000000, 0.0000000000000000000 ) ) ;
#128 = VECTOR ( 'NONE', #194, 1000.000000000000000 ) ;
#129 = ADVANCED_FACE ( 'NONE', ( #201 ), #229, .T. ) ;
#130 = ADVANCED_FACE ( 'NONE', ( #125 ), #90, .T. ) ;
#131 = CARTESIAN_POINT ( 'NONE',  ( -42.49999999999999300, -30.00000000000000000, -1.000000000000000000 ) ) ;
#132 = CC_DESIGN_PERSON_AND_ORGANIZATION_ASSIGNMENT ( #53, #139, ( #172 ) ) ;
#133 = DIRECTION ( 'NONE',  ( 0.0000000000000000000, 0.0000000000000000000, 1.000000000000000000 ) ) ;
#134 = CARTESIAN_POINT ( 'NONE',  ( -42.49999999999999300, -30.00000000000000000, -1.000000000000000000 ) ) ;
#135 = DIRECTION ( 'NONE',  ( 1.000000000000000000, 4.081702296416016400E-017, 0.0000000000000000000 ) ) ;
#136 = ORIENTED_EDGE ( 'NONE', *, *, #81, .T. ) ;
#137 = LINE ( 'NONE', #42, #212 ) ;
#138 = CC_DESIGN_SECURITY_CLASSIFICATION ( #49, ( #151 ) ) ;
#139 = PERSON_AND_ORGANIZATION_ROLE ( 'design_owner' ) ;
#140 = PERSON_AND_ORGANIZATION_ROLE ( 'creator' ) ;
#141 = CALENDAR_DATE ( 2017, 31, 1 ) ;
#142 =( NAMED_UNIT ( * ) SI_UNIT ( $, .STERADIAN. ) SOLID_ANGLE_UNIT ( ) );
#143 = ORIENTED_EDGE ( 'NONE', *, *, #216, .T. ) ;
#144 = DIRECTION ( 'NONE',  ( 0.0000000000000000000, 0.0000000000000000000, 1.000000000000000000 ) ) ;
#145 = PLANE ( 'NONE',  #102 ) ;
#146 = CARTESIAN_POINT ( 'NONE',  ( -42.49999999999999300, -30.00000000000000000, -1.000000000000000000 ) ) ;
#147 = DATE_AND_TIME ( #13, #121 ) ;
#148 = CARTESIAN_POINT ( 'NONE',  ( 42.49999999999999300, 30.00000000000000000, 0.0000000000000000000 ) ) ;
#149 = ORIENTED_EDGE ( 'NONE', *, *, #69, .T. ) ;
#150 = ORIENTED_EDGE ( 'NONE', *, *, #203, .T. ) ;
#151 = PRODUCT_DEFINITION_FORMATION_WITH_SPECIFIED_SOURCE ( 'ANY', '', #172, .NOT_KNOWN. ) ;
#152 = LOCAL_TIME ( 14, 6, 57.00000000000000000, #124 ) ;
#153 = ORIENTED_EDGE ( 'NONE', *, *, #8, .F. ) ;
#154 = CARTESIAN_POINT ( 'NONE',  ( -42.49999999999999300, -30.00000000000000000, -1.000000000000000000 ) ) ;
#155 = PERSON_AND_ORGANIZATION ( #62, #34 ) ;
#156 = CARTESIAN_POINT ( 'NONE',  ( 42.49999999999999300, 30.00000000000000000, -1.000000000000000000 ) ) ;
#157 = CARTESIAN_POINT ( 'NONE',  ( 0.0000000000000000000, 0.0000000000000000000, 0.0000000000000000000 ) ) ;
#158 = EDGE_LOOP ( 'NONE', ( #230, #234, #91, #198 ) ) ;
#159 = ORIENTED_EDGE ( 'NONE', *, *, #8, .T. ) ;
#160 = PERSON_AND_ORGANIZATION_ROLE ( 'creator' ) ;
#161 = LOCAL_TIME ( 14, 6, 57.00000000000000000, #31 ) ;
#162 = PERSON_AND_ORGANIZATION ( #62, #34 ) ;
#163 = CARTESIAN_POINT ( 'NONE',  ( -42.49999999999999300, -30.00000000000000000, 0.0000000000000000000 ) ) ;
#164 = LINE ( 'NONE', #188, #166 ) ;
#165 = ADVANCED_FACE ( 'NONE', ( #220 ), #204, .F. ) ;
#166 = VECTOR ( 'NONE', #222, 1000.000000000000000 ) ;
#167 = DIRECTION ( 'NONE',  ( 1.000000000000000000, 4.081702296416016400E-017, 0.0000000000000000000 ) ) ;
#168 = VECTOR ( 'NONE', #144, 1000.000000000000000 ) ;
#169 = COORDINATED_UNIVERSAL_TIME_OFFSET ( 5, 0, .BEHIND. ) ;
#170 = DIRECTION ( 'NONE',  ( 1.000000000000000000, 0.0000000000000000000, 0.0000000000000000000 ) ) ;
#171 = ORIENTED_EDGE ( 'NONE', *, *, #19, .T. ) ;
#172 = PRODUCT ( 'Web Model 64409', 'Web Model 64409', '', ( #174 ) ) ;
#173 = CC_DESIGN_PERSON_AND_ORGANIZATION_ASSIGNMENT ( #162, #24, ( #151 ) ) ;
#174 = MECHANICAL_CONTEXT ( 'NONE', #117, 'mechanical' ) ;
#175 = ORIENTED_EDGE ( 'NONE', *, *, #84, .T. ) ;
#176 = EDGE_CURVE ( 'NONE', #57, #210, #190, .T. ) ;
#177 = DATE_TIME_ROLE ( 'creation_date' ) ;
#178 = CALENDAR_DATE ( 2017, 31, 1 ) ;
#179 = DIRECTION ( 'NONE',  ( -2.312964634635743000E-016, 1.000000000000000000, -0.0000000000000000000 ) ) ;
#180 = CC_DESIGN_APPROVAL ( #191, ( #49 ) ) ;
#181 = VERTEX_POINT ( 'NONE', #58 ) ;
#182 = VECTOR ( 'NONE', #179, 1000.000000000000000 ) ;
#183 = APPROVAL_PERSON_ORGANIZATION ( #35, #98, #199 ) ;
#184 = DIRECTION ( 'NONE',  ( 0.0000000000000000000, 0.0000000000000000000, 1.000000000000000000 ) ) ;
#185 = LINE ( 'NONE', #50, #25 ) ;
#186 = PRODUCT_DEFINITION ( 'UNKNOWN', '', #151, #65 ) ;
#187 = ADVANCED_BREP_SHAPE_REPRESENTATION ( 'Web Model 64409', ( #104, #63 ), #29 ) ;
#188 = CARTESIAN_POINT ( 'NONE',  ( 42.49999999999999300, 30.00000000000000000, -1.000000000000000000 ) ) ;
#189 = DIRECTION ( 'NONE',  ( 0.0000000000000000000, 0.0000000000000000000, 1.000000000000000000 ) ) ;
#190 = LINE ( 'NONE', #51, #128 ) ;
#191 = APPROVAL ( #60, 'UNSPECIFIED' ) ;
#192 = APPROVAL_PERSON_ORGANIZATION ( #40, #191, #197 ) ;
#193 = APPROVAL_PERSON_ORGANIZATION ( #233, #3, #26 ) ;
#194 = DIRECTION ( 'NONE',  ( 0.0000000000000000000, 0.0000000000000000000, 1.000000000000000000 ) ) ;
#195 = DIRECTION ( 'NONE',  ( -0.0000000000000000000, 0.0000000000000000000, 1.000000000000000000 ) ) ;
#196 = CARTESIAN_POINT ( 'NONE',  ( 42.50000000000000700, -29.99999999999999600, 0.0000000000000000000 ) ) ;
#197 = APPROVAL_ROLE ( '' ) ;
#198 = ORIENTED_EDGE ( 'NONE', *, *, #72, .F. ) ;
#199 = APPROVAL_ROLE ( '' ) ;
#200 = PRODUCT_RELATED_PRODUCT_CATEGORY ( 'detail', '', ( #172 ) ) ;
#201 = FACE_OUTER_BOUND ( 'NONE', #61, .T. ) ;
#202 = DIRECTION ( 'NONE',  ( 2.312964634635743000E-016, -1.000000000000000000, 0.0000000000000000000 ) ) ;
#203 = EDGE_CURVE ( 'NONE', #210, #64, #232, .T. ) ;
#204 = PLANE ( 'NONE',  #6 ) ;
#205 = LOCAL_TIME ( 14, 6, 57.00000000000000000, #169 ) ;
#206 = DIRECTION ( 'NONE',  ( 2.312964634635743400E-016, -1.000000000000000000, 0.0000000000000000000 ) ) ;
#207 = ORIENTED_EDGE ( 'NONE', *, *, #54, .T. ) ;
#208 = EDGE_LOOP ( 'NONE', ( #38, #100, #207, #159 ) ) ;
#209 = CARTESIAN_POINT ( 'NONE',  ( -42.50000000000000700, 30.00000000000000000, -1.000000000000000000 ) ) ;
#210 = VERTEX_POINT ( 'NONE', #196 ) ;
#211 = SHAPE_DEFINITION_REPRESENTATION ( #105, #187 ) ;
#212 = VECTOR ( 'NONE', #184, 1000.000000000000000 ) ;
#213 = PERSON_AND_ORGANIZATION ( #62, #34 ) ;
#214 = FACE_OUTER_BOUND ( 'NONE', #45, .T. ) ;
#215 = PERSON_AND_ORGANIZATION_ROLE ( 'classification_officer' ) ;
#216 = EDGE_CURVE ( 'NONE', #9, #92, #137, .T. ) ;
#217 = LINE ( 'NONE', #154, #116 ) ;
#218 = CARTESIAN_POINT ( 'NONE',  ( -42.50000000000000700, 30.00000000000000000, -1.000000000000000000 ) ) ;
#219 = ADVANCED_FACE ( 'NONE', ( #122 ), #48, .T. ) ;
#220 = FACE_OUTER_BOUND ( 'NONE', #158, .T. ) ;
#221 = ADVANCED_FACE ( 'NONE', ( #214 ), #145, .T. ) ;
#222 = DIRECTION ( 'NONE',  ( -2.312964634635743000E-016, 1.000000000000000000, -0.0000000000000000000 ) ) ;
#223 = EDGE_CURVE ( 'NONE', #126, #9, #108, .T. ) ;
#224 = CARTESIAN_POINT ( 'NONE',  ( -42.50000000000000700, 30.00000000000000000, 0.0000000000000000000 ) ) ;
#225 = ORIENTED_EDGE ( 'NONE', *, *, #69, .F. ) ;
#226 = CARTESIAN_POINT ( 'NONE',  ( -42.50000000000000700, 30.00000000000000000, -1.000000000000000000 ) ) ;
#227 = AXIS2_PLACEMENT_3D ( 'NONE', #1, #195, #94 ) ;
#228 = CALENDAR_DATE ( 2017, 31, 1 ) ;
#229 = PLANE ( 'NONE',  #23 ) ;
#230 = ORIENTED_EDGE ( 'NONE', *, *, #54, .F. ) ;
#231 = PERSON_AND_ORGANIZATION ( #62, #34 ) ;
#232 = LINE ( 'NONE', #148, #182 ) ;
#233 = PERSON_AND_ORGANIZATION ( #62, #34 ) ;
#234 = ORIENTED_EDGE ( 'NONE', *, *, #223, .F. ) ;
#235 = AXIS2_PLACEMENT_3D ( 'NONE', #109, #36, #55 ) ;
#236 = DIRECTION ( 'NONE',  ( 2.312964634635743000E-016, -1.000000000000000000, 0.0000000000000000000 ) ) ;
#237 = DIRECTION ( 'NONE',  ( 1.000000000000000000, 4.081702296416016400E-017, 0.0000000000000000000 ) ) ;
ENDSEC;
END-ISO-10303-21;
