ISO-10303-21;
HEADER;
FILE_DESCRIPTION (( 'STEP AP203' ),
    '1' );
FILE_NAME ('Web Model 20017_20024.step',
    '2022-03-21T20:29:58',
    ( '' ),
    ( '' ),
    'SwSTEP 2.0',
    'SolidWorks 2021',
    '' );
FILE_SCHEMA (( 'CONFIG_CONTROL_DESIGN' ));
ENDSEC;

DATA;
#1 = ORIENTED_EDGE ( 'NONE', *, *, #85, .T. ) ;
#2 = VECTOR ( 'NONE', #21, 1000.000000000000000 ) ;
#3 = DIRECTION ( 'NONE',  ( 0.000000000000000000, 0.000000000000000000, 1.000000000000000000 ) ) ;
#4 = LINE ( 'NONE', #137, #104 ) ;
#5 = CARTESIAN_POINT ( 'NONE',  ( -25.39999999999999858, 0.000000000000000000, 2.000000000000000000 ) ) ;
#6 = CARTESIAN_POINT ( 'NONE',  ( 0.000000000000000000, 0.000000000000000000, 0.000000000000000000 ) ) ;
#7 = APPROVAL_PERSON_ORGANIZATION ( #43, #121, #53 ) ;
#8 = PERSON_AND_ORGANIZATION ( #144, #58 ) ;
#9 = APPROVAL_STATUS ( 'not_yet_approved' ) ;
#10 = CC_DESIGN_PERSON_AND_ORGANIZATION_ASSIGNMENT ( #8, #118, ( #26 ) ) ;
#11 = APPROVAL_ROLE ( '' ) ;
#12 = CALENDAR_DATE ( 2022, 21, 3 ) ;
#13 = LOCAL_TIME ( 16, 29, 58.00000000000000000, #117 ) ;
#14 = ORIENTED_EDGE ( 'NONE', *, *, #88, .F. ) ;
#15 = ORIENTED_EDGE ( 'NONE', *, *, #90, .T. ) ;
#16 = DIRECTION ( 'NONE',  ( 1.000000000000000000, 0.000000000000000000, -0.000000000000000000 ) ) ;
#17 = EDGE_CURVE ( 'NONE', #48, #122, #4, .T. ) ;
#18 = FACE_OUTER_BOUND ( 'NONE', #36, .T. ) ;
#19 = CIRCLE ( 'NONE', #61, 25.39999999999999858 ) ;
#20 = DIRECTION ( 'NONE',  ( 0.000000000000000000, 0.000000000000000000, 1.000000000000000000 ) ) ;
#21 = DIRECTION ( 'NONE',  ( -0.000000000000000000, -0.000000000000000000, -1.000000000000000000 ) ) ;
#22 = AXIS2_PLACEMENT_3D ( 'NONE', #152, #123, #127 ) ;
#23 = ADVANCED_FACE ( 'NONE', ( #77 ), #64, .T. ) ;
#24 = CALENDAR_DATE ( 2022, 21, 3 ) ;
#25 = PRODUCT_DEFINITION_FORMATION_WITH_SPECIFIED_SOURCE ( 'ANY', '', #26, .NOT_KNOWN. ) ;
#26 = PRODUCT ( 'Web Model 20017_20024', 'Web Model 20017_20024', '', ( #150 ) ) ;
#27 = PERSON_AND_ORGANIZATION_ROLE ( 'classification_officer' ) ;
#28 = DATE_AND_TIME ( #12, #162 ) ;
#29 = AXIS2_PLACEMENT_3D ( 'NONE', #136, #96, #16 ) ;
#30 = CC_DESIGN_PERSON_AND_ORGANIZATION_ASSIGNMENT ( #67, #27, ( #68 ) ) ;
#31 = ORIENTED_EDGE ( 'NONE', *, *, #115, .T. ) ;
#32 = CIRCLE ( 'NONE', #119, 25.39999999999999858 ) ;
#33 = MANIFOLD_SOLID_BREP ( 'Boss-Extrude1', #82 ) ;
#34 = UNCERTAINTY_MEASURE_WITH_UNIT (LENGTH_MEASURE( 1.000000000000000082E-05 ), #126, 'distance_accuracy_value', 'NONE');
#35 = CC_DESIGN_SECURITY_CLASSIFICATION ( #68, ( #25 ) ) ;
#36 = EDGE_LOOP ( 'NONE', ( #158, #59, #15, #14 ) ) ;
#37 = FACE_OUTER_BOUND ( 'NONE', #175, .T. ) ;
#38 = CARTESIAN_POINT ( 'NONE',  ( 0.000000000000000000, 0.000000000000000000, 2.000000000000000000 ) ) ;
#39 = DIRECTION ( 'NONE',  ( 0.000000000000000000, 0.000000000000000000, 1.000000000000000000 ) ) ;
#40 = AXIS2_PLACEMENT_3D ( 'NONE', #6, #41, #166 ) ;
#41 = DIRECTION ( 'NONE',  ( 0.000000000000000000, 0.000000000000000000, 1.000000000000000000 ) ) ;
#42 = DATE_AND_TIME ( #157, #120 ) ;
#43 = PERSON_AND_ORGANIZATION ( #144, #58 ) ;
#44 = CC_DESIGN_APPROVAL ( #107, ( #68 ) ) ;
#45 = PERSON_AND_ORGANIZATION ( #144, #58 ) ;
#46 = PERSON_AND_ORGANIZATION_ROLE ( 'creator' ) ;
#47 = APPROVAL_DATE_TIME ( #172, #107 ) ;
#48 = VERTEX_POINT ( 'NONE', #51 ) ;
#49 = DESIGN_CONTEXT ( 'detailed design', #72, 'design' ) ;
#50 = CC_DESIGN_APPROVAL ( #121, ( #25 ) ) ;
#51 = CARTESIAN_POINT ( 'NONE',  ( 25.39999999999999858, 3.110602869834276865E-15, 2.000000000000000000 ) ) ;
#52 = DIRECTION ( 'NONE',  ( 1.000000000000000000, 0.000000000000000000, 0.000000000000000000 ) ) ;
#53 = APPROVAL_ROLE ( '' ) ;
#54 = APPROVAL_DATE_TIME ( #81, #160 ) ;
#55 = SHAPE_DEFINITION_REPRESENTATION ( #168, #78 ) ;
#56 = PERSON_AND_ORGANIZATION ( #144, #58 ) ;
#57 = PRODUCT_DEFINITION ( 'UNKNOWN', '', #25, #49 ) ;
#58 = ORGANIZATION ( 'UNSPECIFIED', 'UNSPECIFIED', '' ) ;
#59 = ORIENTED_EDGE ( 'NONE', *, *, #17, .T. ) ;
#60 = EDGE_LOOP ( 'NONE', ( #106, #143 ) ) ;
#61 = AXIS2_PLACEMENT_3D ( 'NONE', #138, #3, #151 ) ;
#62 = ORIENTED_EDGE ( 'NONE', *, *, #88, .T. ) ;
#63 = CC_DESIGN_PERSON_AND_ORGANIZATION_ASSIGNMENT ( #79, #46, ( #25 ) ) ;
#64 = PLANE ( 'NONE',  #22 ) ;
#65 = DIRECTION ( 'NONE',  ( -0.000000000000000000, -0.000000000000000000, -1.000000000000000000 ) ) ;
#66 = COORDINATED_UNIVERSAL_TIME_OFFSET ( 5, 0, .BEHIND. ) ;
#67 = PERSON_AND_ORGANIZATION ( #144, #58 ) ;
#68 = SECURITY_CLASSIFICATION ( '', '', #173 ) ;
#69 = CIRCLE ( 'NONE', #40, 25.39999999999999858 ) ;
#70 = ORIENTED_EDGE ( 'NONE', *, *, #94, .T. ) ;
#71 = CC_DESIGN_DATE_AND_TIME_ASSIGNMENT ( #153, #132, ( #57 ) ) ;
#72 = APPLICATION_CONTEXT ( 'configuration controlled 3d designs of mechanical parts and assemblies' ) ;
#73 = LINE ( 'NONE', #86, #2 ) ;
#74 = DIRECTION ( 'NONE',  ( -1.000000000000000000, 0.000000000000000000, 0.000000000000000000 ) ) ;
#75 = APPLICATION_PROTOCOL_DEFINITION ( 'international standard', 'config_control_design', 1994, #133 ) ;
#76 = DIRECTION ( 'NONE',  ( -1.000000000000000000, 0.000000000000000000, 0.000000000000000000 ) ) ;
#77 = FACE_OUTER_BOUND ( 'NONE', #135, .T. ) ;
#78 = ADVANCED_BREP_SHAPE_REPRESENTATION ( 'Web Model 20017_20024', ( #33, #110 ), #84 ) ;
#79 = PERSON_AND_ORGANIZATION ( #144, #58 ) ;
#80 = PERSON_AND_ORGANIZATION ( #144, #58 ) ;
#81 = DATE_AND_TIME ( #169, #154 ) ;
#82 = CLOSED_SHELL ( 'NONE', ( #97, #145, #23, #109 ) ) ;
#83 = VERTEX_POINT ( 'NONE', #5 ) ;
#84 =( GEOMETRIC_REPRESENTATION_CONTEXT ( 3 ) GLOBAL_UNCERTAINTY_ASSIGNED_CONTEXT ( ( #34 ) ) GLOBAL_UNIT_ASSIGNED_CONTEXT ( ( #126, #89, #111 ) ) REPRESENTATION_CONTEXT ( 'NONE', 'WORKASPACE' ) );
#85 = EDGE_CURVE ( 'NONE', #83, #48, #32, .T. ) ;
#86 = CARTESIAN_POINT ( 'NONE',  ( -25.39999999999999858, 0.000000000000000000, 2.000000000000000000 ) ) ;
#87 = CARTESIAN_POINT ( 'NONE',  ( 0.000000000000000000, 0.000000000000000000, 2.000000000000000000 ) ) ;
#88 = EDGE_CURVE ( 'NONE', #83, #174, #73, .T. ) ;
#89 =( NAMED_UNIT ( * ) PLANE_ANGLE_UNIT ( ) SI_UNIT ( $, .RADIAN. ) );
#90 = EDGE_CURVE ( 'NONE', #122, #174, #19, .T. ) ;
#91 = LOCAL_TIME ( 16, 29, 58.00000000000000000, #66 ) ;
#92 = PERSON_AND_ORGANIZATION_ROLE ( 'design_supplier' ) ;
#93 = COORDINATED_UNIVERSAL_TIME_OFFSET ( 5, 0, .BEHIND. ) ;
#94 = EDGE_CURVE ( 'NONE', #174, #122, #69, .T. ) ;
#95 = AXIS2_PLACEMENT_3D ( 'NONE', #38, #39, #148 ) ;
#96 = DIRECTION ( 'NONE',  ( 0.000000000000000000, 0.000000000000000000, 1.000000000000000000 ) ) ;
#97 = ADVANCED_FACE ( 'NONE', ( #18 ), #149, .T. ) ;
#98 = DIRECTION ( 'NONE',  ( -0.000000000000000000, -0.000000000000000000, -1.000000000000000000 ) ) ;
#99 = CYLINDRICAL_SURFACE ( 'NONE', #140, 25.39999999999999858 ) ;
#100 = CARTESIAN_POINT ( 'NONE',  ( 0.000000000000000000, 0.000000000000000000, 0.000000000000000000 ) ) ;
#101 = CC_DESIGN_PERSON_AND_ORGANIZATION_ASSIGNMENT ( #45, #156, ( #57 ) ) ;
#102 = APPROVAL_DATE_TIME ( #42, #121 ) ;
#103 = COORDINATED_UNIVERSAL_TIME_OFFSET ( 5, 0, .BEHIND. ) ;
#104 = VECTOR ( 'NONE', #98, 1000.000000000000000 ) ;
#105 = APPROVAL_PERSON_ORGANIZATION ( #56, #107, #11 ) ;
#106 = ORIENTED_EDGE ( 'NONE', *, *, #94, .F. ) ;
#107 = APPROVAL ( #131, 'UNSPECIFIED' ) ;
#108 = CARTESIAN_POINT ( 'NONE',  ( 0.000000000000000000, 0.000000000000000000, 2.000000000000000000 ) ) ;
#109 = ADVANCED_FACE ( 'NONE', ( #139 ), #114, .F. ) ;
#110 = AXIS2_PLACEMENT_3D ( 'NONE', #100, #112, #52 ) ;
#111 =( NAMED_UNIT ( * ) SI_UNIT ( $, .STERADIAN. ) SOLID_ANGLE_UNIT ( ) );
#112 = DIRECTION ( 'NONE',  ( 0.000000000000000000, 0.000000000000000000, 1.000000000000000000 ) ) ;
#113 = CARTESIAN_POINT ( 'NONE',  ( 25.39999999999999858, 3.110602869834276865E-15, 0.000000000000000000 ) ) ;
#114 = PLANE ( 'NONE',  #29 ) ;
#115 = EDGE_CURVE ( 'NONE', #48, #83, #170, .T. ) ;
#116 = PERSON_AND_ORGANIZATION ( #144, #58 ) ;
#117 = COORDINATED_UNIVERSAL_TIME_OFFSET ( 5, 0, .BEHIND. ) ;
#118 = PERSON_AND_ORGANIZATION_ROLE ( 'design_owner' ) ;
#119 = AXIS2_PLACEMENT_3D ( 'NONE', #125, #20, #163 ) ;
#120 = LOCAL_TIME ( 16, 29, 58.00000000000000000, #103 ) ;
#121 = APPROVAL ( #9, 'UNSPECIFIED' ) ;
#122 = VERTEX_POINT ( 'NONE', #113 ) ;
#123 = DIRECTION ( 'NONE',  ( 0.000000000000000000, 0.000000000000000000, 1.000000000000000000 ) ) ;
#124 = CARTESIAN_POINT ( 'NONE',  ( -25.39999999999999858, 0.000000000000000000, 0.000000000000000000 ) ) ;
#125 = CARTESIAN_POINT ( 'NONE',  ( 0.000000000000000000, 0.000000000000000000, 2.000000000000000000 ) ) ;
#126 =( LENGTH_UNIT ( ) NAMED_UNIT ( * ) SI_UNIT ( .MILLI., .METRE. ) );
#127 = DIRECTION ( 'NONE',  ( 1.000000000000000000, 0.000000000000000000, -0.000000000000000000 ) ) ;
#128 = CC_DESIGN_APPROVAL ( #160, ( #57 ) ) ;
#129 = APPROVAL_ROLE ( '' ) ;
#130 = COORDINATED_UNIVERSAL_TIME_OFFSET ( 5, 0, .BEHIND. ) ;
#131 = APPROVAL_STATUS ( 'not_yet_approved' ) ;
#132 = DATE_TIME_ROLE ( 'creation_date' ) ;
#133 = APPLICATION_CONTEXT ( 'configuration controlled 3d designs of mechanical parts and assemblies' ) ;
#134 = ORIENTED_EDGE ( 'NONE', *, *, #85, .F. ) ;
#135 = EDGE_LOOP ( 'NONE', ( #1, #31 ) ) ;
#136 = CARTESIAN_POINT ( 'NONE',  ( 0.000000000000000000, 0.000000000000000000, 0.000000000000000000 ) ) ;
#137 = CARTESIAN_POINT ( 'NONE',  ( 25.39999999999999858, 3.110602869834276865E-15, 2.000000000000000000 ) ) ;
#138 = CARTESIAN_POINT ( 'NONE',  ( 0.000000000000000000, 0.000000000000000000, 0.000000000000000000 ) ) ;
#139 = FACE_OUTER_BOUND ( 'NONE', #60, .T. ) ;
#140 = AXIS2_PLACEMENT_3D ( 'NONE', #87, #165, #74 ) ;
#141 = DATE_TIME_ROLE ( 'classification_date' ) ;
#142 = CALENDAR_DATE ( 2022, 21, 3 ) ;
#143 = ORIENTED_EDGE ( 'NONE', *, *, #90, .F. ) ;
#144 = PERSON ( 'UNSPECIFIED', 'UNSPECIFIED', 'UNSPECIFIED', ('UNSPECIFIED'), ('UNSPECIFIED'), ('UNSPECIFIED') ) ;
#145 = ADVANCED_FACE ( 'NONE', ( #37 ), #99, .T. ) ;
#146 = AXIS2_PLACEMENT_3D ( 'NONE', #108, #65, #76 ) ;
#147 = APPROVAL_PERSON_ORGANIZATION ( #116, #160, #129 ) ;
#148 = DIRECTION ( 'NONE',  ( 1.000000000000000000, 0.000000000000000000, 0.000000000000000000 ) ) ;
#149 = CYLINDRICAL_SURFACE ( 'NONE', #146, 25.39999999999999858 ) ;
#150 = MECHANICAL_CONTEXT ( 'NONE', #133, 'mechanical' ) ;
#151 = DIRECTION ( 'NONE',  ( 1.000000000000000000, 0.000000000000000000, 0.000000000000000000 ) ) ;
#152 = CARTESIAN_POINT ( 'NONE',  ( 0.000000000000000000, 0.000000000000000000, 2.000000000000000000 ) ) ;
#153 = DATE_AND_TIME ( #142, #13 ) ;
#154 = LOCAL_TIME ( 16, 29, 58.00000000000000000, #130 ) ;
#155 = APPLICATION_PROTOCOL_DEFINITION ( 'international standard', 'config_control_design', 1994, #72 ) ;
#156 = PERSON_AND_ORGANIZATION_ROLE ( 'creator' ) ;
#157 = CALENDAR_DATE ( 2022, 21, 3 ) ;
#158 = ORIENTED_EDGE ( 'NONE', *, *, #115, .F. ) ;
#159 = CC_DESIGN_DATE_AND_TIME_ASSIGNMENT ( #28, #141, ( #68 ) ) ;
#160 = APPROVAL ( #171, 'UNSPECIFIED' ) ;
#161 = ORIENTED_EDGE ( 'NONE', *, *, #17, .F. ) ;
#162 = LOCAL_TIME ( 16, 29, 58.00000000000000000, #93 ) ;
#163 = DIRECTION ( 'NONE',  ( 1.000000000000000000, 0.000000000000000000, 0.000000000000000000 ) ) ;
#164 = CC_DESIGN_PERSON_AND_ORGANIZATION_ASSIGNMENT ( #80, #92, ( #25 ) ) ;
#165 = DIRECTION ( 'NONE',  ( -0.000000000000000000, -0.000000000000000000, -1.000000000000000000 ) ) ;
#166 = DIRECTION ( 'NONE',  ( 1.000000000000000000, 0.000000000000000000, 0.000000000000000000 ) ) ;
#167 = PRODUCT_RELATED_PRODUCT_CATEGORY ( 'detail', '', ( #26 ) ) ;
#168 = PRODUCT_DEFINITION_SHAPE ( 'NONE', 'NONE',  #57 ) ;
#169 = CALENDAR_DATE ( 2022, 21, 3 ) ;
#170 = CIRCLE ( 'NONE', #95, 25.39999999999999858 ) ;
#171 = APPROVAL_STATUS ( 'not_yet_approved' ) ;
#172 = DATE_AND_TIME ( #24, #91 ) ;
#173 = SECURITY_CLASSIFICATION_LEVEL ( 'unclassified' ) ;
#174 = VERTEX_POINT ( 'NONE', #124 ) ;
#175 = EDGE_LOOP ( 'NONE', ( #161, #134, #62, #70 ) ) ;
ENDSEC;
END-ISO-10303-21;
