ISO-10303-21;
HEADER;
FILE_DESCRIPTION (( 'STEP AP203' ),
    '1' );
FILE_NAME ('Web Model 84485_48189.step',
    '2017-05-19T15:04:39',
    ( '' ),
    ( '' ),
    'SwSTEP 2.0',
    'SolidWorks 2016',
    '' );
FILE_SCHEMA (( 'CONFIG_CONTROL_DESIGN' ));
ENDSEC;

DATA;
#1 = ADVANCED_BREP_SHAPE_REPRESENTATION ( 'Web Model 84485_48189', ( #186, #76 ), #26 ) ;
#2 = DIRECTION ( 'NONE',  ( 0.0000000000000000000, -1.000000000000000000, 0.0000000000000000000 ) ) ;
#3 = CALENDAR_DATE ( 2017, 19, 5 ) ;
#4 = CC_DESIGN_PERSON_AND_ORGANIZATION_ASSIGNMENT ( #45, #13, ( #98 ) ) ;
#5 = EDGE_CURVE ( 'NONE', #8, #178, #202, .T. ) ;
#6 = PERSON_AND_ORGANIZATION ( #39, #194 ) ;
#7 = SHAPE_DEFINITION_REPRESENTATION ( #18, #1 ) ;
#8 = VERTEX_POINT ( 'NONE', #146 ) ;
#9 = SECURITY_CLASSIFICATION ( '', '', #33 ) ;
#10 = CARTESIAN_POINT ( 'NONE',  ( -6.250000000000000900, 6.250000000000000000, 0.0000000000000000000 ) ) ;
#11 = EDGE_LOOP ( 'NONE', ( #108, #14, #97, #203 ) ) ;
#12 = CARTESIAN_POINT ( 'NONE',  ( -6.250000000000000000, -6.250000000000000000, 2.000000000000000000 ) ) ;
#13 = PERSON_AND_ORGANIZATION_ROLE ( 'design_supplier' ) ;
#14 = ORIENTED_EDGE ( 'NONE', *, *, #64, .F. ) ;
#15 = AXIS2_PLACEMENT_3D ( 'NONE', #211, #57, #176 ) ;
#16 = DIRECTION ( 'NONE',  ( -0.0000000000000000000, -0.0000000000000000000, -1.000000000000000000 ) ) ;
#17 = CARTESIAN_POINT ( 'NONE',  ( -6.250000000000000900, 6.250000000000000000, 2.000000000000000000 ) ) ;
#18 = PRODUCT_DEFINITION_SHAPE ( 'NONE', 'NONE',  #221 ) ;
#19 = CC_DESIGN_PERSON_AND_ORGANIZATION_ASSIGNMENT ( #6, #232, ( #98 ) ) ;
#20 = COORDINATED_UNIVERSAL_TIME_OFFSET ( 5, 0, .BEHIND. ) ;
#21 = LINE ( 'NONE', #177, #115 ) ;
#22 = CARTESIAN_POINT ( 'NONE',  ( -6.250000000000000000, -6.250000000000000000, 2.000000000000000000 ) ) ;
#23 = LINE ( 'NONE', #119, #207 ) ;
#24 = APPROVAL ( #142, 'UNSPECIFIED' ) ;
#25 = VERTEX_POINT ( 'NONE', #220 ) ;
#26 =( GEOMETRIC_REPRESENTATION_CONTEXT ( 3 ) GLOBAL_UNCERTAINTY_ASSIGNED_CONTEXT ( ( #89 ) ) GLOBAL_UNIT_ASSIGNED_CONTEXT ( ( #106, #126, #153 ) ) REPRESENTATION_CONTEXT ( 'NONE', 'WORKASPACE' ) );
#27 = DIRECTION ( 'NONE',  ( -1.000000000000000000, -0.0000000000000000000, -0.0000000000000000000 ) ) ;
#28 = LINE ( 'NONE', #17, #77 ) ;
#29 = VECTOR ( 'NONE', #164, 1000.000000000000000 ) ;
#30 = CARTESIAN_POINT ( 'NONE',  ( -6.250000000000000000, -6.250000000000000000, 2.000000000000000000 ) ) ;
#31 = ORIENTED_EDGE ( 'NONE', *, *, #123, .T. ) ;
#32 = PERSON_AND_ORGANIZATION_ROLE ( 'creator' ) ;
#33 = SECURITY_CLASSIFICATION_LEVEL ( 'unclassified' ) ;
#34 = PRODUCT ( 'Web Model 84485_48189', 'Web Model 84485_48189', '', ( #175 ) ) ;
#35 = EDGE_LOOP ( 'NONE', ( #43, #101, #81, #93 ) ) ;
#36 = APPROVAL_ROLE ( '' ) ;
#37 = CC_DESIGN_PERSON_AND_ORGANIZATION_ASSIGNMENT ( #197, #32, ( #221 ) ) ;
#38 = VECTOR ( 'NONE', #136, 1000.000000000000000 ) ;
#39 = PERSON ( 'UNSPECIFIED', 'UNSPECIFIED', 'UNSPECIFIED', ('UNSPECIFIED'), ('UNSPECIFIED'), ('UNSPECIFIED') ) ;
#40 = CC_DESIGN_SECURITY_CLASSIFICATION ( #9, ( #98 ) ) ;
#41 = DIRECTION ( 'NONE',  ( -0.0000000000000000000, -0.0000000000000000000, -1.000000000000000000 ) ) ;
#42 = FACE_OUTER_BOUND ( 'NONE', #100, .T. ) ;
#43 = ORIENTED_EDGE ( 'NONE', *, *, #102, .T. ) ;
#44 = VERTEX_POINT ( 'NONE', #96 ) ;
#45 = PERSON_AND_ORGANIZATION ( #39, #194 ) ;
#46 = EDGE_CURVE ( 'NONE', #69, #25, #163, .T. ) ;
#47 = PERSON_AND_ORGANIZATION ( #39, #194 ) ;
#48 = DATE_AND_TIME ( #187, #112 ) ;
#49 = CC_DESIGN_DATE_AND_TIME_ASSIGNMENT ( #162, #158, ( #221 ) ) ;
#50 = LOCAL_TIME ( 11, 4, 39.00000000000000000, #166 ) ;
#51 = CARTESIAN_POINT ( 'NONE',  ( -6.250000000000000000, -6.250000000000000000, 2.000000000000000000 ) ) ;
#52 = ADVANCED_FACE ( 'NONE', ( #130 ), #183, .F. ) ;
#53 = DIRECTION ( 'NONE',  ( 0.0000000000000000000, 0.0000000000000000000, 1.000000000000000000 ) ) ;
#54 = CALENDAR_DATE ( 2017, 19, 5 ) ;
#55 = APPROVAL_PERSON_ORGANIZATION ( #80, #24, #87 ) ;
#56 = ORIENTED_EDGE ( 'NONE', *, *, #5, .F. ) ;
#57 = DIRECTION ( 'NONE',  ( 1.000000000000000000, 6.938893903907228400E-017, -0.0000000000000000000 ) ) ;
#58 = DIRECTION ( 'NONE',  ( 1.000000000000000000, 0.0000000000000000000, 0.0000000000000000000 ) ) ;
#59 = APPLICATION_PROTOCOL_DEFINITION ( 'international standard', 'config_control_design', 1994, #90 ) ;
#60 = APPROVAL_DATE_TIME ( #192, #92 ) ;
#61 = CALENDAR_DATE ( 2017, 19, 5 ) ;
#62 = CARTESIAN_POINT ( 'NONE',  ( 6.250000000000000000, -6.250000000000000000, 2.000000000000000000 ) ) ;
#63 = VECTOR ( 'NONE', #27, 1000.000000000000000 ) ;
#64 = EDGE_CURVE ( 'NONE', #44, #135, #140, .T. ) ;
#65 = VECTOR ( 'NONE', #212, 1000.000000000000000 ) ;
#66 = CLOSED_SHELL ( 'NONE', ( #157, #189, #190, #52, #70, #143 ) ) ;
#67 = CARTESIAN_POINT ( 'NONE',  ( 6.249999999999999100, 6.250000000000000000, 2.000000000000000000 ) ) ;
#68 = CC_DESIGN_PERSON_AND_ORGANIZATION_ASSIGNMENT ( #85, #105, ( #9 ) ) ;
#69 = VERTEX_POINT ( 'NONE', #30 ) ;
#70 = ADVANCED_FACE ( 'NONE', ( #156 ), #118, .T. ) ;
#71 = DIRECTION ( 'NONE',  ( -0.0000000000000000000, -0.0000000000000000000, -1.000000000000000000 ) ) ;
#72 = CARTESIAN_POINT ( 'NONE',  ( -6.250000000000000000, -6.250000000000000000, 2.000000000000000000 ) ) ;
#73 = APPROVAL_ROLE ( '' ) ;
#74 = VECTOR ( 'NONE', #86, 1000.000000000000000 ) ;
#75 = CC_DESIGN_DATE_AND_TIME_ASSIGNMENT ( #223, #160, ( #9 ) ) ;
#76 = AXIS2_PLACEMENT_3D ( 'NONE', #138, #53, #58 ) ;
#77 = VECTOR ( 'NONE', #71, 1000.000000000000000 ) ;
#78 = ORIENTED_EDGE ( 'NONE', *, *, #196, .F. ) ;
#79 = FACE_OUTER_BOUND ( 'NONE', #11, .T. ) ;
#80 = PERSON_AND_ORGANIZATION ( #39, #194 ) ;
#81 = ORIENTED_EDGE ( 'NONE', *, *, #132, .T. ) ;
#82 = CARTESIAN_POINT ( 'NONE',  ( -6.250000000000000900, 6.250000000000000000, 0.0000000000000000000 ) ) ;
#83 = DIRECTION ( 'NONE',  ( -6.938893903907228400E-017, 1.000000000000000000, -0.0000000000000000000 ) ) ;
#84 = CC_DESIGN_APPROVAL ( #24, ( #221 ) ) ;
#85 = PERSON_AND_ORGANIZATION ( #39, #194 ) ;
#86 = DIRECTION ( 'NONE',  ( 1.000000000000000000, 0.0000000000000000000, 0.0000000000000000000 ) ) ;
#87 = APPROVAL_ROLE ( '' ) ;
#88 = VECTOR ( 'NONE', #233, 1000.000000000000000 ) ;
#89 = UNCERTAINTY_MEASURE_WITH_UNIT (LENGTH_MEASURE( 1.000000000000000100E-005 ), #106, 'distance_accuracy_value', 'NONE');
#90 = APPLICATION_CONTEXT ( 'configuration controlled 3d designs of mechanical parts and assemblies' ) ;
#91 = PERSON_AND_ORGANIZATION ( #39, #194 ) ;
#92 = APPROVAL ( #180, 'UNSPECIFIED' ) ;
#93 = ORIENTED_EDGE ( 'NONE', *, *, #5, .T. ) ;
#94 = LINE ( 'NONE', #141, #88 ) ;
#95 = LINE ( 'NONE', #82, #63 ) ;
#96 = CARTESIAN_POINT ( 'NONE',  ( 6.250000000000000000, -6.250000000000000000, 2.000000000000000000 ) ) ;
#97 = ORIENTED_EDGE ( 'NONE', *, *, #137, .F. ) ;
#98 = PRODUCT_DEFINITION_FORMATION_WITH_SPECIFIED_SOURCE ( 'ANY', '', #34, .NOT_KNOWN. ) ;
#99 = PERSON_AND_ORGANIZATION ( #39, #194 ) ;
#100 = EDGE_LOOP ( 'NONE', ( #78, #198, #218, #205 ) ) ;
#101 = ORIENTED_EDGE ( 'NONE', *, *, #137, .T. ) ;
#102 = EDGE_CURVE ( 'NONE', #178, #69, #23, .T. ) ;
#103 = VECTOR ( 'NONE', #111, 1000.000000000000000 ) ;
#104 = CARTESIAN_POINT ( 'NONE',  ( -6.250000000000000900, 6.250000000000000000, 0.0000000000000000000 ) ) ;
#105 = PERSON_AND_ORGANIZATION_ROLE ( 'classification_officer' ) ;
#106 =( LENGTH_UNIT ( ) NAMED_UNIT ( * ) SI_UNIT ( .MILLI., .METRE. ) );
#107 = DIRECTION ( 'NONE',  ( 6.938893903907228400E-017, -1.000000000000000000, 0.0000000000000000000 ) ) ;
#108 = ORIENTED_EDGE ( 'NONE', *, *, #145, .T. ) ;
#109 = APPROVAL ( #179, 'UNSPECIFIED' ) ;
#110 = LINE ( 'NONE', #171, #38 ) ;
#111 = DIRECTION ( 'NONE',  ( -0.0000000000000000000, -0.0000000000000000000, -1.000000000000000000 ) ) ;
#112 = LOCAL_TIME ( 11, 4, 39.00000000000000000, #236 ) ;
#113 = ORIENTED_EDGE ( 'NONE', *, *, #132, .F. ) ;
#114 = COORDINATED_UNIVERSAL_TIME_OFFSET ( 5, 0, .BEHIND. ) ;
#115 = VECTOR ( 'NONE', #16, 1000.000000000000000 ) ;
#116 = VECTOR ( 'NONE', #41, 1000.000000000000000 ) ;
#117 = DIRECTION ( 'NONE',  ( 6.938893903907228400E-017, -1.000000000000000000, 0.0000000000000000000 ) ) ;
#118 = PLANE ( 'NONE',  #165 ) ;
#119 = CARTESIAN_POINT ( 'NONE',  ( -6.250000000000000900, 6.250000000000000000, 2.000000000000000000 ) ) ;
#120 = EDGE_LOOP ( 'NONE', ( #174, #237, #148, #234 ) ) ;
#121 = DIRECTION ( 'NONE',  ( 0.0000000000000000000, 1.000000000000000000, 0.0000000000000000000 ) ) ;
#122 = CARTESIAN_POINT ( 'NONE',  ( 6.249999999999999100, 6.250000000000000000, 0.0000000000000000000 ) ) ;
#123 = EDGE_CURVE ( 'NONE', #169, #127, #95, .T. ) ;
#124 = APPLICATION_PROTOCOL_DEFINITION ( 'international standard', 'config_control_design', 1994, #139 ) ;
#125 = PERSON_AND_ORGANIZATION_ROLE ( 'design_owner' ) ;
#126 =( NAMED_UNIT ( * ) PLANE_ANGLE_UNIT ( ) SI_UNIT ( $, .RADIAN. ) );
#127 = VERTEX_POINT ( 'NONE', #10 ) ;
#128 = EDGE_CURVE ( 'NONE', #135, #169, #110, .T. ) ;
#129 = CARTESIAN_POINT ( 'NONE',  ( -6.250000000000000900, 6.250000000000000000, 2.000000000000000000 ) ) ;
#130 = FACE_OUTER_BOUND ( 'NONE', #134, .T. ) ;
#131 = DIRECTION ( 'NONE',  ( 0.0000000000000000000, -0.0000000000000000000, -1.000000000000000000 ) ) ;
#132 = EDGE_CURVE ( 'NONE', #44, #8, #226, .T. ) ;
#133 = AXIS2_PLACEMENT_3D ( 'NONE', #222, #2, #131 ) ;
#134 = EDGE_LOOP ( 'NONE', ( #31, #182, #56, #185 ) ) ;
#135 = VERTEX_POINT ( 'NONE', #152 ) ;
#136 = DIRECTION ( 'NONE',  ( -6.938893903907228400E-017, 1.000000000000000000, -0.0000000000000000000 ) ) ;
#137 = EDGE_CURVE ( 'NONE', #69, #44, #210, .T. ) ;
#138 = CARTESIAN_POINT ( 'NONE',  ( 0.0000000000000000000, 0.0000000000000000000, 0.0000000000000000000 ) ) ;
#139 = APPLICATION_CONTEXT ( 'configuration controlled 3d designs of mechanical parts and assemblies' ) ;
#140 = LINE ( 'NONE', #62, #116 ) ;
#141 = CARTESIAN_POINT ( 'NONE',  ( -6.250000000000000000, -6.250000000000000000, 0.0000000000000000000 ) ) ;
#142 = APPROVAL_STATUS ( 'not_yet_approved' ) ;
#143 = ADVANCED_FACE ( 'NONE', ( #42 ), #150, .F. ) ;
#144 = EDGE_LOOP ( 'NONE', ( #219, #227, #113, #147 ) ) ;
#145 = EDGE_CURVE ( 'NONE', #25, #135, #94, .T. ) ;
#146 = CARTESIAN_POINT ( 'NONE',  ( 6.249999999999999100, 6.250000000000000000, 2.000000000000000000 ) ) ;
#147 = ORIENTED_EDGE ( 'NONE', *, *, #64, .T. ) ;
#148 = ORIENTED_EDGE ( 'NONE', *, *, #102, .F. ) ;
#149 = CALENDAR_DATE ( 2017, 19, 5 ) ;
#150 = PLANE ( 'NONE',  #167 ) ;
#151 = EDGE_CURVE ( 'NONE', #8, #169, #21, .T. ) ;
#152 = CARTESIAN_POINT ( 'NONE',  ( 6.250000000000000000, -6.250000000000000000, 0.0000000000000000000 ) ) ;
#153 =( NAMED_UNIT ( * ) SI_UNIT ( $, .STERADIAN. ) SOLID_ANGLE_UNIT ( ) );
#154 = COORDINATED_UNIVERSAL_TIME_OFFSET ( 5, 0, .BEHIND. ) ;
#155 = FACE_OUTER_BOUND ( 'NONE', #144, .T. ) ;
#156 = FACE_OUTER_BOUND ( 'NONE', #35, .T. ) ;
#157 = ADVANCED_FACE ( 'NONE', ( #173 ), #159, .F. ) ;
#158 = DATE_TIME_ROLE ( 'creation_date' ) ;
#159 = PLANE ( 'NONE',  #15 ) ;
#160 = DATE_TIME_ROLE ( 'classification_date' ) ;
#161 = VECTOR ( 'NONE', #83, 1000.000000000000000 ) ;
#162 = DATE_AND_TIME ( #54, #184 ) ;
#163 = LINE ( 'NONE', #22, #103 ) ;
#164 = DIRECTION ( 'NONE',  ( -1.000000000000000000, -0.0000000000000000000, -0.0000000000000000000 ) ) ;
#165 = AXIS2_PLACEMENT_3D ( 'NONE', #12, #170, #188 ) ;
#166 = COORDINATED_UNIVERSAL_TIME_OFFSET ( 5, 0, .BEHIND. ) ;
#167 = AXIS2_PLACEMENT_3D ( 'NONE', #168, #228, #231 ) ;
#168 = CARTESIAN_POINT ( 'NONE',  ( -6.250000000000000000, -6.250000000000000000, 0.0000000000000000000 ) ) ;
#169 = VERTEX_POINT ( 'NONE', #122 ) ;
#170 = DIRECTION ( 'NONE',  ( -0.0000000000000000000, 0.0000000000000000000, 1.000000000000000000 ) ) ;
#171 = CARTESIAN_POINT ( 'NONE',  ( 6.249999999999999100, 6.250000000000000000, 0.0000000000000000000 ) ) ;
#172 = LOCAL_TIME ( 11, 4, 39.00000000000000000, #114 ) ;
#173 = FACE_OUTER_BOUND ( 'NONE', #120, .T. ) ;
#174 = ORIENTED_EDGE ( 'NONE', *, *, #196, .T. ) ;
#175 = MECHANICAL_CONTEXT ( 'NONE', #139, 'mechanical' ) ;
#176 = DIRECTION ( 'NONE',  ( -6.938893903907228400E-017, 1.000000000000000000, 0.0000000000000000000 ) ) ;
#177 = CARTESIAN_POINT ( 'NONE',  ( 6.249999999999999100, 6.250000000000000000, 2.000000000000000000 ) ) ;
#178 = VERTEX_POINT ( 'NONE', #191 ) ;
#179 = APPROVAL_STATUS ( 'not_yet_approved' ) ;
#180 = APPROVAL_STATUS ( 'not_yet_approved' ) ;
#181 = AXIS2_PLACEMENT_3D ( 'NONE', #215, #193, #107 ) ;
#182 = ORIENTED_EDGE ( 'NONE', *, *, #230, .F. ) ;
#183 = PLANE ( 'NONE',  #133 ) ;
#184 = LOCAL_TIME ( 11, 4, 39.00000000000000000, #20 ) ;
#185 = ORIENTED_EDGE ( 'NONE', *, *, #151, .T. ) ;
#186 = MANIFOLD_SOLID_BREP ( 'Extrude1', #66 ) ;
#187 = CALENDAR_DATE ( 2017, 19, 5 ) ;
#188 = DIRECTION ( 'NONE',  ( 1.000000000000000000, 0.0000000000000000000, 0.0000000000000000000 ) ) ;
#189 = ADVANCED_FACE ( 'NONE', ( #79 ), #214, .F. ) ;
#190 = ADVANCED_FACE ( 'NONE', ( #155 ), #213, .F. ) ;
#191 = CARTESIAN_POINT ( 'NONE',  ( -6.250000000000000900, 6.250000000000000000, 2.000000000000000000 ) ) ;
#192 = DATE_AND_TIME ( #61, #172 ) ;
#193 = DIRECTION ( 'NONE',  ( -1.000000000000000000, -6.938893903907228400E-017, 0.0000000000000000000 ) ) ;
#194 = ORGANIZATION ( 'UNSPECIFIED', 'UNSPECIFIED', '' ) ;
#195 = DIRECTION ( 'NONE',  ( 0.0000000000000000000, -0.0000000000000000000, 1.000000000000000000 ) ) ;
#196 = EDGE_CURVE ( 'NONE', #127, #25, #201, .T. ) ;
#197 = PERSON_AND_ORGANIZATION ( #39, #194 ) ;
#198 = ORIENTED_EDGE ( 'NONE', *, *, #123, .F. ) ;
#199 = DESIGN_CONTEXT ( 'detailed design', #90, 'design' ) ;
#200 = APPROVAL_DATE_TIME ( #48, #24 ) ;
#201 = LINE ( 'NONE', #104, #65 ) ;
#202 = LINE ( 'NONE', #129, #29 ) ;
#203 = ORIENTED_EDGE ( 'NONE', *, *, #46, .T. ) ;
#204 = APPROVAL_PERSON_ORGANIZATION ( #91, #109, #36 ) ;
#205 = ORIENTED_EDGE ( 'NONE', *, *, #145, .F. ) ;
#206 = CC_DESIGN_APPROVAL ( #92, ( #9 ) ) ;
#207 = VECTOR ( 'NONE', #117, 1000.000000000000000 ) ;
#208 = CC_DESIGN_PERSON_AND_ORGANIZATION_ASSIGNMENT ( #99, #125, ( #34 ) ) ;
#209 = APPROVAL_PERSON_ORGANIZATION ( #47, #92, #73 ) ;
#210 = LINE ( 'NONE', #51, #74 ) ;
#211 = CARTESIAN_POINT ( 'NONE',  ( -6.250000000000000900, 6.250000000000000000, 2.000000000000000000 ) ) ;
#212 = DIRECTION ( 'NONE',  ( 6.938893903907228400E-017, -1.000000000000000000, 0.0000000000000000000 ) ) ;
#213 = PLANE ( 'NONE',  #181 ) ;
#214 = PLANE ( 'NONE',  #225 ) ;
#215 = CARTESIAN_POINT ( 'NONE',  ( 6.249999999999999100, 6.250000000000000000, 2.000000000000000000 ) ) ;
#216 = CC_DESIGN_APPROVAL ( #109, ( #98 ) ) ;
#217 = DATE_AND_TIME ( #3, #50 ) ;
#218 = ORIENTED_EDGE ( 'NONE', *, *, #128, .F. ) ;
#219 = ORIENTED_EDGE ( 'NONE', *, *, #128, .T. ) ;
#220 = CARTESIAN_POINT ( 'NONE',  ( -6.250000000000000000, -6.250000000000000000, 0.0000000000000000000 ) ) ;
#221 = PRODUCT_DEFINITION ( 'UNKNOWN', '', #98, #199 ) ;
#222 = CARTESIAN_POINT ( 'NONE',  ( -6.250000000000000900, 6.250000000000000000, 2.000000000000000000 ) ) ;
#223 = DATE_AND_TIME ( #149, #235 ) ;
#224 = PRODUCT_RELATED_PRODUCT_CATEGORY ( 'detail', '', ( #34 ) ) ;
#225 = AXIS2_PLACEMENT_3D ( 'NONE', #72, #121, #195 ) ;
#226 = LINE ( 'NONE', #67, #161 ) ;
#227 = ORIENTED_EDGE ( 'NONE', *, *, #151, .F. ) ;
#228 = DIRECTION ( 'NONE',  ( -0.0000000000000000000, 0.0000000000000000000, 1.000000000000000000 ) ) ;
#229 = APPROVAL_DATE_TIME ( #217, #109 ) ;
#230 = EDGE_CURVE ( 'NONE', #178, #127, #28, .T. ) ;
#231 = DIRECTION ( 'NONE',  ( 1.000000000000000000, 0.0000000000000000000, 0.0000000000000000000 ) ) ;
#232 = PERSON_AND_ORGANIZATION_ROLE ( 'creator' ) ;
#233 = DIRECTION ( 'NONE',  ( 1.000000000000000000, 0.0000000000000000000, 0.0000000000000000000 ) ) ;
#234 = ORIENTED_EDGE ( 'NONE', *, *, #230, .T. ) ;
#235 = LOCAL_TIME ( 11, 4, 39.00000000000000000, #154 ) ;
#236 = COORDINATED_UNIVERSAL_TIME_OFFSET ( 5, 0, .BEHIND. ) ;
#237 = ORIENTED_EDGE ( 'NONE', *, *, #46, .F. ) ;
ENDSEC;
END-ISO-10303-21;
