ISO-10303-21;
HEADER;
FILE_DESCRIPTION (( 'STEP AP203' ),
    '1' );
FILE_NAME ('Web Model 48201_11924.step',
    '2019-01-07T15:22:05',
    ( '' ),
    ( '' ),
    'SwSTEP 2.0',
    'SolidWorks 2016',
    '' );
FILE_SCHEMA (( 'CONFIG_CONTROL_DESIGN' ));
ENDSEC;

DATA;
#1 = VECTOR ( 'NONE', #173, 1000.000000000000000 ) ;
#2 = VERTEX_POINT ( 'NONE', #108 ) ;
#3 = CC_DESIGN_PERSON_AND_ORGANIZATION_ASSIGNMENT ( #234, #122, ( #25 ) ) ;
#4 = CARTESIAN_POINT ( 'NONE',  ( -12.50000000000000000, 12.50000000000000000, -1.000000000000000000 ) ) ;
#5 = EDGE_CURVE ( 'NONE', #142, #93, #205, .T. ) ;
#6 = VECTOR ( 'NONE', #156, 1000.000000000000000 ) ;
#7 = DIRECTION ( 'NONE',  ( -1.000000000000000000, -0.0000000000000000000, -0.0000000000000000000 ) ) ;
#8 =( LENGTH_UNIT ( ) NAMED_UNIT ( * ) SI_UNIT ( .MILLI., .METRE. ) );
#9 = ADVANCED_FACE ( 'NONE', ( #58 ), #22, .F. ) ;
#10 = DIRECTION ( 'NONE',  ( -0.0000000000000000000, -0.0000000000000000000, -1.000000000000000000 ) ) ;
#11 = DIRECTION ( 'NONE',  ( 0.0000000000000000000, -0.0000000000000000000, 1.000000000000000000 ) ) ;
#12 = PLANE ( 'NONE',  #129 ) ;
#13 = DIRECTION ( 'NONE',  ( 1.000000000000000000, 0.0000000000000000000, 0.0000000000000000000 ) ) ;
#14 = CARTESIAN_POINT ( 'NONE',  ( -12.50000000000000000, -12.50000000000000000, 1.000000000000000000 ) ) ;
#15 = PRODUCT_DEFINITION_FORMATION_WITH_SPECIFIED_SOURCE ( 'ANY', '', #165, .NOT_KNOWN. ) ;
#16 = VECTOR ( 'NONE', #10, 1000.000000000000000 ) ;
#17 = DATE_AND_TIME ( #54, #169 ) ;
#18 = EDGE_CURVE ( 'NONE', #19, #142, #124, .T. ) ;
#19 = VERTEX_POINT ( 'NONE', #95 ) ;
#20 = AXIS2_PLACEMENT_3D ( 'NONE', #219, #167, #73 ) ;
#21 = CARTESIAN_POINT ( 'NONE',  ( -12.50000000000000000, -12.50000000000000000, -1.000000000000000000 ) ) ;
#22 = PLANE ( 'NONE',  #20 ) ;
#23 = ORIENTED_EDGE ( 'NONE', *, *, #112, .T. ) ;
#24 = CALENDAR_DATE ( 2019, 7, 1 ) ;
#25 = SECURITY_CLASSIFICATION ( '', '', #65 ) ;
#26 = DIRECTION ( 'NONE',  ( -1.000000000000000000, 0.0000000000000000000, 0.0000000000000000000 ) ) ;
#27 = FACE_OUTER_BOUND ( 'NONE', #231, .T. ) ;
#28 = CARTESIAN_POINT ( 'NONE',  ( 0.0000000000000000000, 0.0000000000000000000, 0.0000000000000000000 ) ) ;
#29 = APPROVAL_ROLE ( '' ) ;
#30 = DATE_AND_TIME ( #89, #59 ) ;
#31 = DIRECTION ( 'NONE',  ( 1.000000000000000000, 0.0000000000000000000, 0.0000000000000000000 ) ) ;
#32 = DATE_TIME_ROLE ( 'classification_date' ) ;
#33 = ORIENTED_EDGE ( 'NONE', *, *, #61, .F. ) ;
#34 = COORDINATED_UNIVERSAL_TIME_OFFSET ( 5, 0, .BEHIND. ) ;
#35 = EDGE_LOOP ( 'NONE', ( #225, #191, #127, #147 ) ) ;
#36 = PERSON_AND_ORGANIZATION ( #148, #45 ) ;
#37 = CC_DESIGN_DATE_AND_TIME_ASSIGNMENT ( #17, #100, ( #56 ) ) ;
#38 = VECTOR ( 'NONE', #31, 1000.000000000000000 ) ;
#39 = COORDINATED_UNIVERSAL_TIME_OFFSET ( 5, 0, .BEHIND. ) ;
#40 = ORIENTED_EDGE ( 'NONE', *, *, #51, .F. ) ;
#41 = CC_DESIGN_PERSON_AND_ORGANIZATION_ASSIGNMENT ( #83, #140, ( #165 ) ) ;
#42 = CARTESIAN_POINT ( 'NONE',  ( 12.50000000000000000, -12.50000000000000000, 1.000000000000000000 ) ) ;
#43 = DIRECTION ( 'NONE',  ( 1.000000000000000000, 0.0000000000000000000, 0.0000000000000000000 ) ) ;
#44 = PRODUCT_DEFINITION_SHAPE ( 'NONE', 'NONE',  #56 ) ;
#45 = ORGANIZATION ( 'UNSPECIFIED', 'UNSPECIFIED', '' ) ;
#46 = ORIENTED_EDGE ( 'NONE', *, *, #5, .T. ) ;
#47 = CARTESIAN_POINT ( 'NONE',  ( -12.50000000000000000, -12.50000000000000000, 1.000000000000000000 ) ) ;
#48 = VECTOR ( 'NONE', #146, 1000.000000000000000 ) ;
#49 = PERSON_AND_ORGANIZATION_ROLE ( 'design_supplier' ) ;
#50 = APPROVAL_STATUS ( 'not_yet_approved' ) ;
#51 = EDGE_CURVE ( 'NONE', #2, #142, #192, .T. ) ;
#52 = VECTOR ( 'NONE', #7, 1000.000000000000000 ) ;
#53 = CC_DESIGN_SECURITY_CLASSIFICATION ( #25, ( #15 ) ) ;
#54 = CALENDAR_DATE ( 2019, 7, 1 ) ;
#55 = CLOSED_SHELL ( 'NONE', ( #63, #136, #233, #183, #9, #118 ) ) ;
#56 = PRODUCT_DEFINITION ( 'UNKNOWN', '', #15, #223 ) ;
#57 = CC_DESIGN_PERSON_AND_ORGANIZATION_ASSIGNMENT ( #123, #160, ( #15 ) ) ;
#58 = FACE_OUTER_BOUND ( 'NONE', #207, .T. ) ;
#59 = LOCAL_TIME ( 10, 22, 5.000000000000000000, #198 ) ;
#60 = ORIENTED_EDGE ( 'NONE', *, *, #166, .T. ) ;
#61 = EDGE_CURVE ( 'NONE', #149, #19, #212, .T. ) ;
#62 = PLANE ( 'NONE',  #210 ) ;
#63 = ADVANCED_FACE ( 'NONE', ( #27 ), #94, .F. ) ;
#64 = APPLICATION_CONTEXT ( 'configuration controlled 3d designs of mechanical parts and assemblies' ) ;
#65 = SECURITY_CLASSIFICATION_LEVEL ( 'unclassified' ) ;
#66 = DIRECTION ( 'NONE',  ( 0.0000000000000000000, -0.0000000000000000000, -1.000000000000000000 ) ) ;
#67 = LOCAL_TIME ( 10, 22, 5.000000000000000000, #39 ) ;
#68 = EDGE_CURVE ( 'NONE', #235, #93, #137, .T. ) ;
#69 = APPROVAL_DATE_TIME ( #134, #104 ) ;
#70 = ORIENTED_EDGE ( 'NONE', *, *, #107, .F. ) ;
#71 = CC_DESIGN_PERSON_AND_ORGANIZATION_ASSIGNMENT ( #190, #120, ( #56 ) ) ;
#72 = PERSON_AND_ORGANIZATION ( #148, #45 ) ;
#73 = DIRECTION ( 'NONE',  ( -1.000000000000000000, 0.0000000000000000000, -0.0000000000000000000 ) ) ;
#74 = ORIENTED_EDGE ( 'NONE', *, *, #61, .T. ) ;
#75 = CALENDAR_DATE ( 2019, 7, 1 ) ;
#76 = CALENDAR_DATE ( 2019, 7, 1 ) ;
#77 = APPROVAL ( #82, 'UNSPECIFIED' ) ;
#78 = DIRECTION ( 'NONE',  ( 0.0000000000000000000, 0.0000000000000000000, 1.000000000000000000 ) ) ;
#79 = APPROVAL_PERSON_ORGANIZATION ( #72, #104, #101 ) ;
#80 = ORIENTED_EDGE ( 'NONE', *, *, #107, .T. ) ;
#81 = DIRECTION ( 'NONE',  ( -1.000000000000000000, 0.0000000000000000000, -0.0000000000000000000 ) ) ;
#82 = APPROVAL_STATUS ( 'not_yet_approved' ) ;
#83 = PERSON_AND_ORGANIZATION ( #148, #45 ) ;
#84 = DIRECTION ( 'NONE',  ( 0.0000000000000000000, 0.0000000000000000000, -1.000000000000000000 ) ) ;
#85 = EDGE_LOOP ( 'NONE', ( #46, #181, #106, #195 ) ) ;
#86 = MECHANICAL_CONTEXT ( 'NONE', #203, 'mechanical' ) ;
#87 = CARTESIAN_POINT ( 'NONE',  ( -12.50000000000000000, -12.50000000000000000, -1.000000000000000000 ) ) ;
#88 = CARTESIAN_POINT ( 'NONE',  ( -12.50000000000000000, 12.50000000000000000, 1.000000000000000000 ) ) ;
#89 = CALENDAR_DATE ( 2019, 7, 1 ) ;
#90 = ORIENTED_EDGE ( 'NONE', *, *, #232, .F. ) ;
#91 = EDGE_CURVE ( 'NONE', #235, #176, #144, .T. ) ;
#92 = VECTOR ( 'NONE', #162, 1000.000000000000000 ) ;
#93 = VERTEX_POINT ( 'NONE', #96 ) ;
#94 = PLANE ( 'NONE',  #150 ) ;
#95 = CARTESIAN_POINT ( 'NONE',  ( -12.50000000000000000, 12.50000000000000000, 1.000000000000000000 ) ) ;
#96 = CARTESIAN_POINT ( 'NONE',  ( -12.50000000000000000, -12.50000000000000000, -1.000000000000000000 ) ) ;
#97 = DIRECTION ( 'NONE',  ( 0.0000000000000000000, 0.0000000000000000000, -1.000000000000000000 ) ) ;
#98 = CARTESIAN_POINT ( 'NONE',  ( -12.50000000000000000, 12.50000000000000000, -1.000000000000000000 ) ) ;
#99 = ORIENTED_EDGE ( 'NONE', *, *, #121, .T. ) ;
#100 = DATE_TIME_ROLE ( 'creation_date' ) ;
#101 = APPROVAL_ROLE ( '' ) ;
#102 = DIRECTION ( 'NONE',  ( 0.0000000000000000000, 1.000000000000000000, 0.0000000000000000000 ) ) ;
#103 = FACE_OUTER_BOUND ( 'NONE', #189, .T. ) ;
#104 = APPROVAL ( #214, 'UNSPECIFIED' ) ;
#105 = ORIENTED_EDGE ( 'NONE', *, *, #5, .F. ) ;
#106 = ORIENTED_EDGE ( 'NONE', *, *, #112, .F. ) ;
#107 = EDGE_CURVE ( 'NONE', #217, #2, #208, .T. ) ;
#108 = CARTESIAN_POINT ( 'NONE',  ( 12.50000000000000000, 12.50000000000000000, -1.000000000000000000 ) ) ;
#109 = LINE ( 'NONE', #138, #16 ) ;
#110 = PERSON_AND_ORGANIZATION ( #148, #45 ) ;
#111 = ORIENTED_EDGE ( 'NONE', *, *, #121, .F. ) ;
#112 = EDGE_CURVE ( 'NONE', #19, #235, #115, .T. ) ;
#113 = COORDINATED_UNIVERSAL_TIME_OFFSET ( 5, 0, .BEHIND. ) ;
#114 = CARTESIAN_POINT ( 'NONE',  ( 12.50000000000000000, -12.50000000000000000, -1.000000000000000000 ) ) ;
#115 = LINE ( 'NONE', #226, #1 ) ;
#116 = CARTESIAN_POINT ( 'NONE',  ( 12.50000000000000000, -12.50000000000000000, 1.000000000000000000 ) ) ;
#117 = CARTESIAN_POINT ( 'NONE',  ( 12.50000000000000000, -12.50000000000000000, 1.000000000000000000 ) ) ;
#118 = ADVANCED_FACE ( 'NONE', ( #197 ), #12, .T. ) ;
#119 = DIRECTION ( 'NONE',  ( 0.0000000000000000000, -1.000000000000000000, 0.0000000000000000000 ) ) ;
#120 = PERSON_AND_ORGANIZATION_ROLE ( 'creator' ) ;
#121 = EDGE_CURVE ( 'NONE', #149, #2, #109, .T. ) ;
#122 = PERSON_AND_ORGANIZATION_ROLE ( 'classification_officer' ) ;
#123 = PERSON_AND_ORGANIZATION ( #148, #45 ) ;
#124 = LINE ( 'NONE', #88, #237 ) ;
#125 = EDGE_LOOP ( 'NONE', ( #70, #90, #105, #40 ) ) ;
#126 = APPROVAL_DATE_TIME ( #30, #194 ) ;
#127 = ORIENTED_EDGE ( 'NONE', *, *, #91, .F. ) ;
#128 = LOCAL_TIME ( 10, 22, 5.000000000000000000, #34 ) ;
#129 = AXIS2_PLACEMENT_3D ( 'NONE', #180, #84, #81 ) ;
#130 = VECTOR ( 'NONE', #151, 1000.000000000000000 ) ;
#131 = PLANE ( 'NONE',  #172 ) ;
#132 =( NAMED_UNIT ( * ) SI_UNIT ( $, .STERADIAN. ) SOLID_ANGLE_UNIT ( ) );
#133 = FACE_OUTER_BOUND ( 'NONE', #35, .T. ) ;
#134 = DATE_AND_TIME ( #76, #187 ) ;
#135 =( NAMED_UNIT ( * ) PLANE_ANGLE_UNIT ( ) SI_UNIT ( $, .RADIAN. ) );
#136 = ADVANCED_FACE ( 'NONE', ( #103 ), #131, .F. ) ;
#137 = LINE ( 'NONE', #47, #200 ) ;
#138 = CARTESIAN_POINT ( 'NONE',  ( 12.50000000000000000, 12.50000000000000000, 1.000000000000000000 ) ) ;
#139 = PLANE ( 'NONE',  #188 ) ;
#140 = PERSON_AND_ORGANIZATION_ROLE ( 'design_owner' ) ;
#141 = FACE_OUTER_BOUND ( 'NONE', #85, .T. ) ;
#142 = VERTEX_POINT ( 'NONE', #98 ) ;
#143 = LINE ( 'NONE', #116, #236 ) ;
#144 = LINE ( 'NONE', #196, #227 ) ;
#145 = EDGE_CURVE ( 'NONE', #176, #149, #143, .T. ) ;
#146 = DIRECTION ( 'NONE',  ( -0.0000000000000000000, -1.000000000000000000, -0.0000000000000000000 ) ) ;
#147 = ORIENTED_EDGE ( 'NONE', *, *, #68, .T. ) ;
#148 = PERSON ( 'UNSPECIFIED', 'UNSPECIFIED', 'UNSPECIFIED', ('UNSPECIFIED'), ('UNSPECIFIED'), ('UNSPECIFIED') ) ;
#149 = VERTEX_POINT ( 'NONE', #201 ) ;
#150 = AXIS2_PLACEMENT_3D ( 'NONE', #155, #26, #78 ) ;
#151 = DIRECTION ( 'NONE',  ( -1.000000000000000000, -0.0000000000000000000, -0.0000000000000000000 ) ) ;
#152 = UNCERTAINTY_MEASURE_WITH_UNIT (LENGTH_MEASURE( 1.000000000000000100E-005 ), #8, 'distance_accuracy_value', 'NONE');
#153 = CC_DESIGN_DATE_AND_TIME_ASSIGNMENT ( #229, #32, ( #25 ) ) ;
#154 = ADVANCED_BREP_SHAPE_REPRESENTATION ( 'Web Model 48201_11924', ( #204, #193 ), #202 ) ;
#155 = CARTESIAN_POINT ( 'NONE',  ( 12.50000000000000000, -12.50000000000000000, 1.000000000000000000 ) ) ;
#156 = DIRECTION ( 'NONE',  ( 0.0000000000000000000, 1.000000000000000000, 0.0000000000000000000 ) ) ;
#157 = CARTESIAN_POINT ( 'NONE',  ( 12.50000000000000000, -12.50000000000000000, -1.000000000000000000 ) ) ;
#158 = ORIENTED_EDGE ( 'NONE', *, *, #51, .T. ) ;
#159 = DIRECTION ( 'NONE',  ( 0.0000000000000000000, 0.0000000000000000000, 1.000000000000000000 ) ) ;
#160 = PERSON_AND_ORGANIZATION_ROLE ( 'creator' ) ;
#161 = CARTESIAN_POINT ( 'NONE',  ( -12.50000000000000000, 12.50000000000000000, 1.000000000000000000 ) ) ;
#162 = DIRECTION ( 'NONE',  ( -0.0000000000000000000, -0.0000000000000000000, -1.000000000000000000 ) ) ;
#163 = SHAPE_DEFINITION_REPRESENTATION ( #44, #154 ) ;
#164 = PRODUCT_RELATED_PRODUCT_CATEGORY ( 'detail', '', ( #165 ) ) ;
#165 = PRODUCT ( 'Web Model 48201_11924', 'Web Model 48201_11924', '', ( #86 ) ) ;
#166 = EDGE_CURVE ( 'NONE', #176, #217, #211, .T. ) ;
#167 = DIRECTION ( 'NONE',  ( 0.0000000000000000000, 0.0000000000000000000, -1.000000000000000000 ) ) ;
#168 = CC_DESIGN_APPROVAL ( #104, ( #25 ) ) ;
#169 = LOCAL_TIME ( 10, 22, 5.000000000000000000, #174 ) ;
#170 = ORIENTED_EDGE ( 'NONE', *, *, #18, .F. ) ;
#171 = APPROVAL_DATE_TIME ( #224, #77 ) ;
#172 = AXIS2_PLACEMENT_3D ( 'NONE', #161, #119, #66 ) ;
#173 = DIRECTION ( 'NONE',  ( -0.0000000000000000000, -1.000000000000000000, -0.0000000000000000000 ) ) ;
#174 = COORDINATED_UNIVERSAL_TIME_OFFSET ( 5, 0, .BEHIND. ) ;
#175 = DIRECTION ( 'NONE',  ( -0.0000000000000000000, -0.0000000000000000000, -1.000000000000000000 ) ) ;
#176 = VERTEX_POINT ( 'NONE', #117 ) ;
#177 = APPLICATION_PROTOCOL_DEFINITION ( 'international standard', 'config_control_design', 1994, #203 ) ;
#178 = APPROVAL_PERSON_ORGANIZATION ( #110, #194, #29 ) ;
#179 = DIRECTION ( 'NONE',  ( 1.000000000000000000, 0.0000000000000000000, 0.0000000000000000000 ) ) ;
#180 = CARTESIAN_POINT ( 'NONE',  ( 0.0000000000000000000, 0.0000000000000000000, -1.000000000000000000 ) ) ;
#181 = ORIENTED_EDGE ( 'NONE', *, *, #68, .F. ) ;
#182 = CARTESIAN_POINT ( 'NONE',  ( -12.50000000000000000, -12.50000000000000000, 1.000000000000000000 ) ) ;
#183 = ADVANCED_FACE ( 'NONE', ( #133 ), #139, .F. ) ;
#184 = CC_DESIGN_APPROVAL ( #77, ( #56 ) ) ;
#185 = CC_DESIGN_APPROVAL ( #194, ( #15 ) ) ;
#186 = ORIENTED_EDGE ( 'NONE', *, *, #91, .T. ) ;
#187 = LOCAL_TIME ( 10, 22, 5.000000000000000000, #113 ) ;
#188 = AXIS2_PLACEMENT_3D ( 'NONE', #230, #102, #11 ) ;
#189 = EDGE_LOOP ( 'NONE', ( #158, #170, #33, #99 ) ) ;
#190 = PERSON_AND_ORGANIZATION ( #148, #45 ) ;
#191 = ORIENTED_EDGE ( 'NONE', *, *, #166, .F. ) ;
#192 = LINE ( 'NONE', #4, #130 ) ;
#193 = AXIS2_PLACEMENT_3D ( 'NONE', #28, #159, #179 ) ;
#194 = APPROVAL ( #50, 'UNSPECIFIED' ) ;
#195 = ORIENTED_EDGE ( 'NONE', *, *, #18, .T. ) ;
#196 = CARTESIAN_POINT ( 'NONE',  ( -12.50000000000000000, -12.50000000000000000, 1.000000000000000000 ) ) ;
#197 = FACE_OUTER_BOUND ( 'NONE', #125, .T. ) ;
#198 = COORDINATED_UNIVERSAL_TIME_OFFSET ( 5, 0, .BEHIND. ) ;
#199 = APPLICATION_PROTOCOL_DEFINITION ( 'international standard', 'config_control_design', 1994, #64 ) ;
#200 = VECTOR ( 'NONE', #175, 1000.000000000000000 ) ;
#201 = CARTESIAN_POINT ( 'NONE',  ( 12.50000000000000000, 12.50000000000000000, 1.000000000000000000 ) ) ;
#202 =( GEOMETRIC_REPRESENTATION_CONTEXT ( 3 ) GLOBAL_UNCERTAINTY_ASSIGNED_CONTEXT ( ( #152 ) ) GLOBAL_UNIT_ASSIGNED_CONTEXT ( ( #8, #135, #132 ) ) REPRESENTATION_CONTEXT ( 'NONE', 'WORKASPACE' ) );
#203 = APPLICATION_CONTEXT ( 'configuration controlled 3d designs of mechanical parts and assemblies' ) ;
#204 = MANIFOLD_SOLID_BREP ( 'Boss-Extrude1', #55 ) ;
#205 = LINE ( 'NONE', #21, #48 ) ;
#206 = LINE ( 'NONE', #87, #38 ) ;
#207 = EDGE_LOOP ( 'NONE', ( #222, #74, #23, #186 ) ) ;
#208 = LINE ( 'NONE', #114, #6 ) ;
#209 = ORIENTED_EDGE ( 'NONE', *, *, #145, .F. ) ;
#210 = AXIS2_PLACEMENT_3D ( 'NONE', #182, #13, #97 ) ;
#211 = LINE ( 'NONE', #42, #92 ) ;
#212 = LINE ( 'NONE', #221, #52 ) ;
#213 = APPROVAL_ROLE ( '' ) ;
#214 = APPROVAL_STATUS ( 'not_yet_approved' ) ;
#215 = PERSON_AND_ORGANIZATION ( #148, #45 ) ;
#216 = DIRECTION ( 'NONE',  ( 0.0000000000000000000, 1.000000000000000000, 0.0000000000000000000 ) ) ;
#217 = VERTEX_POINT ( 'NONE', #157 ) ;
#218 = DIRECTION ( 'NONE',  ( -0.0000000000000000000, -0.0000000000000000000, -1.000000000000000000 ) ) ;
#219 = CARTESIAN_POINT ( 'NONE',  ( 0.0000000000000000000, 0.0000000000000000000, 1.000000000000000000 ) ) ;
#220 = CC_DESIGN_PERSON_AND_ORGANIZATION_ASSIGNMENT ( #36, #49, ( #15 ) ) ;
#221 = CARTESIAN_POINT ( 'NONE',  ( -12.50000000000000000, 12.50000000000000000, 1.000000000000000000 ) ) ;
#222 = ORIENTED_EDGE ( 'NONE', *, *, #145, .T. ) ;
#223 = DESIGN_CONTEXT ( 'detailed design', #64, 'design' ) ;
#224 = DATE_AND_TIME ( #75, #128 ) ;
#225 = ORIENTED_EDGE ( 'NONE', *, *, #232, .T. ) ;
#226 = CARTESIAN_POINT ( 'NONE',  ( -12.50000000000000000, -12.50000000000000000, 1.000000000000000000 ) ) ;
#227 = VECTOR ( 'NONE', #43, 1000.000000000000000 ) ;
#228 = APPROVAL_PERSON_ORGANIZATION ( #215, #77, #213 ) ;
#229 = DATE_AND_TIME ( #24, #67 ) ;
#230 = CARTESIAN_POINT ( 'NONE',  ( -12.50000000000000000, -12.50000000000000000, 1.000000000000000000 ) ) ;
#231 = EDGE_LOOP ( 'NONE', ( #80, #111, #209, #60 ) ) ;
#232 = EDGE_CURVE ( 'NONE', #93, #217, #206, .T. ) ;
#233 = ADVANCED_FACE ( 'NONE', ( #141 ), #62, .F. ) ;
#234 = PERSON_AND_ORGANIZATION ( #148, #45 ) ;
#235 = VERTEX_POINT ( 'NONE', #14 ) ;
#236 = VECTOR ( 'NONE', #216, 1000.000000000000000 ) ;
#237 = VECTOR ( 'NONE', #218, 1000.000000000000000 ) ;
ENDSEC;
END-ISO-10303-21;
