ISO-10303-21;
HEADER;
FILE_DESCRIPTION (( 'STEP AP203' ),
    '1' );
FILE_NAME ('20170-E0W.STEP',
    '2018-06-01T18:07:49',
    ( 'admin' ),
    ( '' ),
    'SwSTEP 2.0',
    'SolidWorks 2016',
    '' );
FILE_SCHEMA (( 'CONFIG_CONTROL_DESIGN' ));
ENDSEC;

DATA;
#1 = ORIENTED_EDGE ( 'NONE', *, *, #227, .F. ) ;
#2 = COORDINATED_UNIVERSAL_TIME_OFFSET ( 5, 0, .BEHIND. ) ;
#3 = DATE_TIME_ROLE ( 'classification_date' ) ;
#4 = DIRECTION ( 'NONE',  ( 1.000000000000000000, 0.0000000000000000000, 0.0000000000000000000 ) ) ;
#5 = DIRECTION ( 'NONE',  ( 0.0000000000000000000, -1.000000000000000000, -1.707404996040164500E-016 ) ) ;
#6 = ADVANCED_FACE ( 'NONE', ( #202 ), #194, .T. ) ;
#7 = APPROVAL_ROLE ( '' ) ;
#8 = ADVANCED_FACE ( 'NONE', ( #169 ), #90, .T. ) ;
#9 = CC_DESIGN_DATE_AND_TIME_ASSIGNMENT ( #137, #91, ( #276 ) ) ;
#10 = DIRECTION ( 'NONE',  ( 1.224646799147353200E-016, 1.000000000000000000, 0.0000000000000000000 ) ) ;
#11 = SHAPE_DEFINITION_REPRESENTATION ( #171, #31 ) ;
#12 = VECTOR ( 'NONE', #53, 39.37007874015748100 ) ;
#13 = SPHERICAL_SURFACE ( 'NONE', #152, 2.078188976377952600 ) ;
#14 = CARTESIAN_POINT ( 'NONE',  ( 0.0000000000000000000, 0.0000000000000000000, 2.129698129338585000 ) ) ;
#15 = ORIENTED_EDGE ( 'NONE', *, *, #29, .T. ) ;
#16 = CARTESIAN_POINT ( 'NONE',  ( 0.0000000000000000000, 0.0000000000000000000, 0.5239500978425223300 ) ) ;
#17 = VECTOR ( 'NONE', #100, 39.37007874015748100 ) ;
#18 = LOCAL_TIME ( 14, 7, 49.00000000000000000, #127 ) ;
#19 = ORIENTED_EDGE ( 'NONE', *, *, #203, .T. ) ;
#20 = CARTESIAN_POINT ( 'NONE',  ( 3.061616997868382400E-017, 0.2500000000000000000, -0.008072666374097632300 ) ) ;
#21 = APPROVAL_STATUS ( 'not_yet_approved' ) ;
#22 = VECTOR ( 'NONE', #154, 39.37007874015748100 ) ;
#23 = ORIENTED_EDGE ( 'NONE', *, *, #74, .T. ) ;
#24 = LOCAL_TIME ( 14, 7, 49.00000000000000000, #319 ) ;
#25 = CALENDAR_DATE ( 2018, 1, 6 ) ;
#26 = PRODUCT_DEFINITION_FORMATION_WITH_SPECIFIED_SOURCE ( 'ANY', '', #267, .NOT_KNOWN. ) ;
#27 = DIRECTION ( 'NONE',  ( 0.0000000000000000000, -1.000000000000000000, -1.833611759518356000E-016 ) ) ;
#28 = EDGE_CURVE ( 'NONE', #248, #104, #110, .T. ) ;
#29 = EDGE_CURVE ( 'NONE', #75, #104, #84, .T. ) ;
#30 = DIRECTION ( 'NONE',  ( 1.000000000000000000, -1.224646799147353200E-016, -2.249565377136128300E-032 ) ) ;
#31 = ADVANCED_BREP_SHAPE_REPRESENTATION ( '20170-E0W', ( #93, #238 ), #186 ) ;
#32 = DIRECTION ( 'NONE',  ( 0.0000000000000000000, 1.000000000000000000, 1.707404996040164500E-016 ) ) ;
#33 = LOCAL_TIME ( 14, 7, 49.00000000000000000, #2 ) ;
#34 = DIRECTION ( 'NONE',  ( 0.0000000000000000000, -1.000000000000000000, -1.833611759518356000E-016 ) ) ;
#35 = LINE ( 'NONE', #38, #175 ) ;
#36 =( CONVERSION_BASED_UNIT ( 'INCH', #235 ) LENGTH_UNIT ( ) NAMED_UNIT ( #215 ) );
#37 =( NAMED_UNIT ( * ) SI_UNIT ( $, .STERADIAN. ) SOLID_ANGLE_UNIT ( ) );
#38 = CARTESIAN_POINT ( 'NONE',  ( 0.0000000000000000000, 0.2500000000000000000, 0.06036624826491252700 ) ) ;
#39 = ORIENTED_EDGE ( 'NONE', *, *, #227, .T. ) ;
#40 = AXIS2_PLACEMENT_3D ( 'NONE', #291, #292, #236 ) ;
#41 = CARTESIAN_POINT ( 'NONE',  ( 0.0000000000000000000, -1.626968277904726200E-018, 0.06036624826491248500 ) ) ;
#42 = ORIENTED_EDGE ( 'NONE', *, *, #214, .F. ) ;
#43 = CARTESIAN_POINT ( 'NONE',  ( 0.0000000000000000000, 1.196739014448673000E-017, -0.01364043630470035400 ) ) ;
#44 = APPROVAL ( #274, 'UNSPECIFIED' ) ;
#45 = MECHANICAL_CONTEXT ( 'NONE', #198, 'mechanical' ) ;
#46 = DIRECTION ( 'NONE',  ( -0.0000000000000000000, -1.836909530733566100E-016, 1.000000000000000000 ) ) ;
#47 = AXIS2_PLACEMENT_3D ( 'NONE', #43, #117, #260 ) ;
#48 = DIRECTION ( 'NONE',  ( 0.0000000000000000000, -1.000000000000000000, -1.707404996040164500E-016 ) ) ;
#49 = APPROVAL_DATE_TIME ( #226, #296 ) ;
#50 =( NAMED_UNIT ( * ) PLANE_ANGLE_UNIT ( ) SI_UNIT ( $, .RADIAN. ) );
#51 = CARTESIAN_POINT ( 'NONE',  ( -2.993431481629359100E-017, -0.2444322300693961800, 0.06593401819551519800 ) ) ;
#52 = ORIENTED_EDGE ( 'NONE', *, *, #214, .T. ) ;
#53 = DIRECTION ( 'NONE',  ( 8.659560562354931600E-017, 0.7071067811865473500, 0.7071067811865476800 ) ) ;
#54 = EDGE_CURVE ( 'NONE', #104, #248, #258, .T. ) ;
#55 = CARTESIAN_POINT ( 'NONE',  ( 0.0000000000000000000, 0.2444322300693965700, 0.06593401819551524000 ) ) ;
#56 = VERTEX_POINT ( 'NONE', #20 ) ;
#57 = APPROVAL_ROLE ( '' ) ;
#58 = DIRECTION ( 'NONE',  ( -0.0000000000000000000, -1.836909530733566100E-016, 1.000000000000000000 ) ) ;
#59 = DIRECTION ( 'NONE',  ( -1.000000000000000000, 1.224646799147353200E-016, 2.249565377136128300E-032 ) ) ;
#60 = ADVANCED_FACE ( 'NONE', ( #123 ), #228, .F. ) ;
#61 = CC_DESIGN_APPROVAL ( #44, ( #26 ) ) ;
#62 = CONICAL_SURFACE ( 'NONE', #264, 0.2444322300693973200, 0.7853981633974482800 ) ;
#63 = AXIS2_PLACEMENT_3D ( 'NONE', #245, #108, #172 ) ;
#64 = FACE_OUTER_BOUND ( 'NONE', #218, .T. ) ;
#65 = ORIENTED_EDGE ( 'NONE', *, *, #114, .F. ) ;
#66 = CARTESIAN_POINT ( 'NONE',  ( 2.993431481629367800E-017, 0.2444322300693973800, -0.01364043630470025500 ) ) ;
#67 = EDGE_LOOP ( 'NONE', ( #219, #19, #151 ) ) ;
#68 = ORIENTED_EDGE ( 'NONE', *, *, #188, .T. ) ;
#69 = ORIENTED_EDGE ( 'NONE', *, *, #54, .F. ) ;
#70 = DIRECTION ( 'NONE',  ( 1.000000000000000000, 0.0000000000000000000, 0.0000000000000000000 ) ) ;
#71 = CIRCLE ( 'NONE', #304, 2.078188976377952600 ) ;
#72 = APPROVAL_STATUS ( 'not_yet_approved' ) ;
#73 = DATE_AND_TIME ( #199, #33 ) ;
#74 = EDGE_CURVE ( 'NONE', #243, #104, #181, .T. ) ;
#75 = VERTEX_POINT ( 'NONE', #51 ) ;
#76 = LINE ( 'NONE', #311, #230 ) ;
#77 = ORIENTED_EDGE ( 'NONE', *, *, #196, .F. ) ;
#78 = CARTESIAN_POINT ( 'NONE',  ( 0.0000000000000000000, -0.2500000000000000000, -0.008072666374097724200 ) ) ;
#79 = SPHERICAL_SURFACE ( 'NONE', #261, 0.5905511811023621500 ) ;
#80 = CARTESIAN_POINT ( 'NONE',  ( 0.0000000000000000000, -1.626968277904726200E-018, 0.06036624826491248500 ) ) ;
#81 = CC_DESIGN_PERSON_AND_ORGANIZATION_ASSIGNMENT ( #174, #146, ( #26 ) ) ;
#82 = PERSON_AND_ORGANIZATION ( #178, #279 ) ;
#83 = ORIENTED_EDGE ( 'NONE', *, *, #114, .T. ) ;
#84 = LINE ( 'NONE', #217, #162 ) ;
#85 = COORDINATED_UNIVERSAL_TIME_OFFSET ( 5, 0, .BEHIND. ) ;
#86 = AXIS2_PLACEMENT_3D ( 'NONE', #80, #113, #303 ) ;
#87 = CARTESIAN_POINT ( 'NONE',  ( 2.993431481629368400E-017, 0.2444322300693973200, -0.01364043630470030900 ) ) ;
#88 = ADVANCED_FACE ( 'NONE', ( #265 ), #301, .T. ) ;
#89 = PERSON_AND_ORGANIZATION_ROLE ( 'design_supplier' ) ;
#90 = SPHERICAL_SURFACE ( 'NONE', #40, 0.5905511811023621500 ) ;
#91 = DATE_TIME_ROLE ( 'creation_date' ) ;
#92 = LINE ( 'NONE', #87, #12 ) ;
#93 = MANIFOLD_SOLID_BREP ( '20170-001-1-solid1', #266 ) ;
#94 =( LENGTH_UNIT ( ) NAMED_UNIT ( * ) SI_UNIT ( $, .METRE. ) );
#95 = CC_DESIGN_PERSON_AND_ORGANIZATION_ASSIGNMENT ( #170, #89, ( #26 ) ) ;
#96 = ORIENTED_EDGE ( 'NONE', *, *, #28, .F. ) ;
#97 = ORIENTED_EDGE ( 'NONE', *, *, #308, .F. ) ;
#98 = PERSON_AND_ORGANIZATION ( #178, #279 ) ;
#99 = EDGE_LOOP ( 'NONE', ( #42, #39, #324 ) ) ;
#100 = DIRECTION ( 'NONE',  ( -0.0000000000000000000, -1.836909530733566100E-016, 1.000000000000000000 ) ) ;
#101 = DIRECTION ( 'NONE',  ( 0.0000000000000000000, -1.000000000000000000, -1.835460370743176800E-016 ) ) ;
#102 = CIRCLE ( 'NONE', #47, 0.2444322300693973200 ) ;
#103 = CARTESIAN_POINT ( 'NONE',  ( 0.0000000000000000000, 1.196739014448673000E-017, -0.01364043630470035400 ) ) ;
#104 = VERTEX_POINT ( 'NONE', #190 ) ;
#105 = APPLICATION_PROTOCOL_DEFINITION ( 'international standard', 'config_control_design', 1994, #198 ) ;
#106 = PERSON_AND_ORGANIZATION_ROLE ( 'classification_officer' ) ;
#107 = DIRECTION ( 'NONE',  ( -0.0000000000000000000, -1.836909530733566100E-016, 1.000000000000000000 ) ) ;
#108 = DIRECTION ( 'NONE',  ( 0.0000000000000000000, 1.836909530733566100E-016, -1.000000000000000000 ) ) ;
#109 = SECURITY_CLASSIFICATION ( '', '', #327 ) ;
#110 = CIRCLE ( 'NONE', #284, 0.2500000000000000000 ) ;
#111 = DIRECTION ( 'NONE',  ( -0.0000000000000000000, -1.836909530733566100E-016, 1.000000000000000000 ) ) ;
#112 = CONICAL_SURFACE ( 'NONE', #187, 0.2500000000000000000, 0.7853981633974545000 ) ;
#113 = DIRECTION ( 'NONE',  ( -0.0000000000000000000, -1.836909530733566100E-016, 1.000000000000000000 ) ) ;
#114 = EDGE_CURVE ( 'NONE', #289, #56, #92, .T. ) ;
#115 = PERSON_AND_ORGANIZATION ( #178, #279 ) ;
#116 = DATE_AND_TIME ( #270, #144 ) ;
#117 = DIRECTION ( 'NONE',  ( -0.0000000000000000000, -1.836909530733566100E-016, 1.000000000000000000 ) ) ;
#118 = CIRCLE ( 'NONE', #300, 0.5905511811023621500 ) ;
#119 = ORIENTED_EDGE ( 'NONE', *, *, #298, .T. ) ;
#120 = DIRECTION ( 'NONE',  ( -0.0000000000000000000, -1.836909530733566100E-016, 1.000000000000000000 ) ) ;
#121 = AXIS2_PLACEMENT_3D ( 'NONE', #125, #120, #244 ) ;
#122 = CARTESIAN_POINT ( 'NONE',  ( 0.0000000000000000000, -2.649717242950314800E-018, 0.06593401819551519800 ) ) ;
#123 = FACE_OUTER_BOUND ( 'NONE', #143, .T. ) ;
#124 = EDGE_LOOP ( 'NONE', ( #224, #83, #269, #316 ) ) ;
#125 = CARTESIAN_POINT ( 'NONE',  ( 0.0000000000000000000, 1.094464117944115000E-017, -0.008072666374097677400 ) ) ;
#126 = CARTESIAN_POINT ( 'NONE',  ( 0.0000000000000000000, 0.0000000000000000000, 0.05150915296063259000 ) ) ;
#127 = COORDINATED_UNIVERSAL_TIME_OFFSET ( 5, 0, .BEHIND. ) ;
#128 = VERTEX_POINT ( 'NONE', #168 ) ;
#129 = FACE_OUTER_BOUND ( 'NONE', #67, .T. ) ;
#130 = ORIENTED_EDGE ( 'NONE', *, *, #310, .T. ) ;
#131 = CC_DESIGN_PERSON_AND_ORGANIZATION_ASSIGNMENT ( #211, #106, ( #109 ) ) ;
#132 = DIRECTION ( 'NONE',  ( 0.0000000000000000000, 1.000000000000000000, 1.314533001914755700E-016 ) ) ;
#133 = CARTESIAN_POINT ( 'NONE',  ( 0.0000000000000000000, 1.094464117944115000E-017, -0.008072666374097677400 ) ) ;
#134 = ADVANCED_FACE ( 'NONE', ( #173 ), #62, .T. ) ;
#135 = APPLICATION_CONTEXT ( 'configuration controlled 3d designs of mechanical parts and assemblies' ) ;
#136 = EDGE_CURVE ( 'NONE', #75, #302, #232, .T. ) ;
#137 = DATE_AND_TIME ( #237, #24 ) ;
#138 = AXIS2_PLACEMENT_3D ( 'NONE', #103, #111, #184 ) ;
#139 = UNCERTAINTY_MEASURE_WITH_UNIT (LENGTH_MEASURE( 1.000000000000000100E-005 ), #36, 'distance_accuracy_value', 'NONE');
#140 = ORIENTED_EDGE ( 'NONE', *, *, #308, .T. ) ;
#141 = CARTESIAN_POINT ( 'NONE',  ( 0.0000000000000000000, -1.626968277904726200E-018, 0.06036624826491248500 ) ) ;
#142 = AXIS2_PLACEMENT_3D ( 'NONE', #330, #325, #48 ) ;
#143 = EDGE_LOOP ( 'NONE', ( #206, #158, #68 ) ) ;
#144 = LOCAL_TIME ( 14, 7, 49.00000000000000000, #85 ) ;
#145 = CC_DESIGN_DATE_AND_TIME_ASSIGNMENT ( #116, #3, ( #109 ) ) ;
#146 = PERSON_AND_ORGANIZATION_ROLE ( 'creator' ) ;
#147 = DIRECTION ( 'NONE',  ( 0.0000000000000000000, 1.836909530733566100E-016, -1.000000000000000000 ) ) ;
#148 = COORDINATED_UNIVERSAL_TIME_OFFSET ( 5, 0, .BEHIND. ) ;
#149 = AXIS2_PLACEMENT_3D ( 'NONE', #133, #272, #101 ) ;
#150 = CARTESIAN_POINT ( 'NONE',  ( 3.061616997868383000E-017, 0.2500000000000000000, 0.05150915296063263100 ) ) ;
#151 = ORIENTED_EDGE ( 'NONE', *, *, #136, .T. ) ;
#152 = AXIS2_PLACEMENT_3D ( 'NONE', #322, #182, #312 ) ;
#153 = PERSON_AND_ORGANIZATION ( #178, #279 ) ;
#154 = DIRECTION ( 'NONE',  ( -0.0000000000000000000, -1.836909530733566100E-016, 1.000000000000000000 ) ) ;
#155 = PERSON_AND_ORGANIZATION ( #178, #279 ) ;
#156 = ADVANCED_FACE ( 'NONE', ( #64 ), #112, .T. ) ;
#157 = AXIS2_PLACEMENT_3D ( 'NONE', #16, #200, #283 ) ;
#158 = ORIENTED_EDGE ( 'NONE', *, *, #231, .T. ) ;
#159 = DIRECTION ( 'NONE',  ( 0.0000000000000000000, -1.000000000000000000, -1.707404996040164500E-016 ) ) ;
#160 = CIRCLE ( 'NONE', #149, 0.2500000000000000000 ) ;
#161 = CARTESIAN_POINT ( 'NONE',  ( 0.0000000000000000000, 0.0000000000000000000, 0.5239500978425223300 ) ) ;
#162 = VECTOR ( 'NONE', #234, 39.37007874015748900 ) ;
#163 = CIRCLE ( 'NONE', #180, 0.2444322300693972100 ) ;
#164 = APPROVAL_PERSON_ORGANIZATION ( #155, #44, #7 ) ;
#165 = APPROVAL ( #72, 'UNSPECIFIED' ) ;
#166 = ORIENTED_EDGE ( 'NONE', *, *, #54, .T. ) ;
#167 = ORIENTED_EDGE ( 'NONE', *, *, #281, .T. ) ;
#168 = CARTESIAN_POINT ( 'NONE',  ( 0.0000000000000000000, 7.231807861180451000E-017, -0.06660108325983987700 ) ) ;
#169 = FACE_OUTER_BOUND ( 'NONE', #99, .T. ) ;
#170 = PERSON_AND_ORGANIZATION ( #178, #279 ) ;
#171 = PRODUCT_DEFINITION_SHAPE ( 'NONE', 'NONE',  #276 ) ;
#172 = DIRECTION ( 'NONE',  ( 0.0000000000000000000, 1.000000000000000000, 1.707404996040164500E-016 ) ) ;
#173 = FACE_OUTER_BOUND ( 'NONE', #305, .T. ) ;
#174 = PERSON_AND_ORGANIZATION ( #178, #279 ) ;
#175 = VECTOR ( 'NONE', #313, 39.37007874015748100 ) ;
#176 = APPROVAL_DATE_TIME ( #177, #165 ) ;
#177 = DATE_AND_TIME ( #25, #220 ) ;
#178 = PERSON ( 'UNSPECIFIED', 'UNSPECIFIED', 'UNSPECIFIED', ('UNSPECIFIED'), ('UNSPECIFIED'), ('UNSPECIFIED') ) ;
#179 = CARTESIAN_POINT ( 'NONE',  ( 0.0000000000000000000, -0.2500000000000000000, 0.05150915296063254800 ) ) ;
#180 = AXIS2_PLACEMENT_3D ( 'NONE', #250, #107, #205 ) ;
#181 = LINE ( 'NONE', #179, #22 ) ;
#182 = DIRECTION ( 'NONE',  ( -1.000000000000000000, 0.0000000000000000000, 0.0000000000000000000 ) ) ;
#183 = CYLINDRICAL_SURFACE ( 'NONE', #142, 0.2500000000000000000 ) ;
#184 = DIRECTION ( 'NONE',  ( 0.0000000000000000000, -1.000000000000000000, -1.833611759518356000E-016 ) ) ;
#185 = CC_DESIGN_APPROVAL ( #165, ( #109 ) ) ;
#186 =( GEOMETRIC_REPRESENTATION_CONTEXT ( 3 ) GLOBAL_UNCERTAINTY_ASSIGNED_CONTEXT ( ( #139 ) ) GLOBAL_UNIT_ASSIGNED_CONTEXT ( ( #36, #50, #37 ) ) REPRESENTATION_CONTEXT ( 'NONE', 'WORKASPACE' ) );
#187 = AXIS2_PLACEMENT_3D ( 'NONE', #41, #147, #32 ) ;
#188 = EDGE_CURVE ( 'NONE', #302, #75, #163, .T. ) ;
#189 = ADVANCED_FACE ( 'NONE', ( #285 ), #79, .T. ) ;
#190 = CARTESIAN_POINT ( 'NONE',  ( 0.0000000000000000000, -0.2500000000000000000, 0.06036624826491244300 ) ) ;
#191 = DIRECTION ( 'NONE',  ( -0.0000000000000000000, -1.836909530733566100E-016, 1.000000000000000000 ) ) ;
#192 = EDGE_CURVE ( 'NONE', #222, #243, #76, .T. ) ;
#193 = DIRECTION ( 'NONE',  ( 0.0000000000000000000, -1.000000000000000000, -2.312964634635743000E-016 ) ) ;
#194 = CONICAL_SURFACE ( 'NONE', #138, 0.2444322300693973200, 0.7853981633974482800 ) ;
#195 = DIRECTION ( 'NONE',  ( -0.0000000000000000000, -1.836909530733566100E-016, 1.000000000000000000 ) ) ;
#196 = EDGE_CURVE ( 'NONE', #289, #222, #102, .T. ) ;
#197 = APPROVAL_PERSON_ORGANIZATION ( #82, #296, #57 ) ;
#198 = APPLICATION_CONTEXT ( 'configuration controlled 3d designs of mechanical parts and assemblies' ) ;
#199 = CALENDAR_DATE ( 2018, 1, 6 ) ;
#200 = DIRECTION ( 'NONE',  ( -1.000000000000000000, 0.0000000000000000000, -0.0000000000000000000 ) ) ;
#201 = EDGE_LOOP ( 'NONE', ( #1, #52, #77 ) ) ;
#202 = FACE_OUTER_BOUND ( 'NONE', #124, .T. ) ;
#203 = EDGE_CURVE ( 'NONE', #257, #75, #71, .T. ) ;
#204 = CC_DESIGN_SECURITY_CLASSIFICATION ( #109, ( #26 ) ) ;
#205 = DIRECTION ( 'NONE',  ( 0.0000000000000000000, -1.000000000000000000, -1.746296913827006200E-016 ) ) ;
#206 = ORIENTED_EDGE ( 'NONE', *, *, #203, .F. ) ;
#207 = ORIENTED_EDGE ( 'NONE', *, *, #188, .F. ) ;
#208 = CONICAL_SURFACE ( 'NONE', #63, 0.2500000000000000000, 0.7853981633974545000 ) ;
#209 = LINE ( 'NONE', #150, #17 ) ;
#210 = CARTESIAN_POINT ( 'NONE',  ( 0.0000000000000000000, 0.0000000000000000000, 2.129698129338585000 ) ) ;
#211 = PERSON_AND_ORGANIZATION ( #178, #279 ) ;
#212 = APPROVAL_ROLE ( '' ) ;
#213 = APPROVAL_DATE_TIME ( #73, #44 ) ;
#214 = EDGE_CURVE ( 'NONE', #128, #222, #253, .T. ) ;
#215 = DIMENSIONAL_EXPONENTS ( 1.000000000000000000, 0.0000000000000000000, 0.0000000000000000000, 0.0000000000000000000, 0.0000000000000000000, 0.0000000000000000000, 0.0000000000000000000 ) ;
#216 = CARTESIAN_POINT ( 'NONE',  ( 0.0000000000000000000, 5.089968876346382000E-016, 0.05150915296063240300 ) ) ;
#217 = CARTESIAN_POINT ( 'NONE',  ( 3.061616997868383000E-017, -0.2500000000000000000, 0.06036624826491244300 ) ) ;
#218 = EDGE_LOOP ( 'NONE', ( #259, #15, #166, #286 ) ) ;
#219 = ORIENTED_EDGE ( 'NONE', *, *, #231, .F. ) ;
#220 = LOCAL_TIME ( 14, 7, 49.00000000000000000, #148 ) ;
#221 = PRODUCT_RELATED_PRODUCT_CATEGORY ( 'detail', '', ( #267 ) ) ;
#222 = VERTEX_POINT ( 'NONE', #309 ) ;
#223 = AXIS2_PLACEMENT_3D ( 'NONE', #262, #195, #34 ) ;
#224 = ORIENTED_EDGE ( 'NONE', *, *, #315, .T. ) ;
#225 = PERSON_AND_ORGANIZATION_ROLE ( 'design_owner' ) ;
#226 = DATE_AND_TIME ( #297, #18 ) ;
#227 = EDGE_CURVE ( 'NONE', #128, #289, #118, .T. ) ;
#228 = SPHERICAL_SURFACE ( 'NONE', #307, 2.078188976377952600 ) ;
#229 = ORIENTED_EDGE ( 'NONE', *, *, #196, .T. ) ;
#230 = VECTOR ( 'NONE', #318, 39.37007874015748100 ) ;
#231 = EDGE_CURVE ( 'NONE', #257, #302, #306, .T. ) ;
#232 = CIRCLE ( 'NONE', #299, 0.2444322300693972100 ) ;
#233 = CARTESIAN_POINT ( 'NONE',  ( 3.061616997868383000E-017, 0.2500000000000000000, 0.06036624826491252700 ) ) ;
#234 = DIRECTION ( 'NONE',  ( 8.659560562354985900E-017, -0.7071067811865516800, -0.7071067811865431300 ) ) ;
#235 = LENGTH_MEASURE_WITH_UNIT ( LENGTH_MEASURE( 0.02539999999999999900 ), #94 );
#236 = DIRECTION ( 'NONE',  ( 0.0000000000000000000, -1.000000000000000000, -2.312964634635743000E-016 ) ) ;
#237 = CALENDAR_DATE ( 2018, 1, 6 ) ;
#238 = AXIS2_PLACEMENT_3D ( 'NONE', #247, #320, #70 ) ;
#239 = ADVANCED_FACE ( 'NONE', ( #246 ), #208, .T. ) ;
#240 = ORIENTED_EDGE ( 'NONE', *, *, #298, .F. ) ;
#241 = FACE_OUTER_BOUND ( 'NONE', #290, .T. ) ;
#242 = ORIENTED_EDGE ( 'NONE', *, *, #29, .F. ) ;
#243 = VERTEX_POINT ( 'NONE', #78 ) ;
#244 = DIRECTION ( 'NONE',  ( 0.0000000000000000000, -1.000000000000000000, -1.835460370743176800E-016 ) ) ;
#245 = CARTESIAN_POINT ( 'NONE',  ( 0.0000000000000000000, -1.626968277904726200E-018, 0.06036624826491248500 ) ) ;
#246 = FACE_OUTER_BOUND ( 'NONE', #252, .T. ) ;
#247 = CARTESIAN_POINT ( 'NONE',  ( 0.0000000000000000000, 0.0000000000000000000, 0.0000000000000000000 ) ) ;
#248 = VERTEX_POINT ( 'NONE', #233 ) ;
#249 = PERSON_AND_ORGANIZATION_ROLE ( 'creator' ) ;
#250 = CARTESIAN_POINT ( 'NONE',  ( 0.0000000000000000000, -2.649717242950314800E-018, 0.06593401819551519800 ) ) ;
#251 = CC_DESIGN_PERSON_AND_ORGANIZATION_ASSIGNMENT ( #115, #225, ( #267 ) ) ;
#252 = EDGE_LOOP ( 'NONE', ( #242, #207, #167, #329 ) ) ;
#253 = CIRCLE ( 'NONE', #157, 0.5905511811023621500 ) ;
#254 = APPLICATION_PROTOCOL_DEFINITION ( 'international standard', 'config_control_design', 1994, #135 ) ;
#255 = DIRECTION ( 'NONE',  ( 0.0000000000000000000, 0.0000000000000000000, -1.000000000000000000 ) ) ;
#256 = CIRCLE ( 'NONE', #121, 0.2500000000000000000 ) ;
#257 = VERTEX_POINT ( 'NONE', #216 ) ;
#258 = CIRCLE ( 'NONE', #86, 0.2500000000000000000 ) ;
#259 = ORIENTED_EDGE ( 'NONE', *, *, #136, .F. ) ;
#260 = DIRECTION ( 'NONE',  ( 0.0000000000000000000, -1.000000000000000000, -1.833611759518356000E-016 ) ) ;
#261 = AXIS2_PLACEMENT_3D ( 'NONE', #161, #317, #193 ) ;
#262 = CARTESIAN_POINT ( 'NONE',  ( 0.0000000000000000000, 1.196739014448673000E-017, -0.01364043630470035400 ) ) ;
#263 = ADVANCED_FACE ( 'NONE', ( #129 ), #13, .F. ) ;
#264 = AXIS2_PLACEMENT_3D ( 'NONE', #294, #58, #27 ) ;
#265 = FACE_OUTER_BOUND ( 'NONE', #273, .T. ) ;
#266 = CLOSED_SHELL ( 'NONE', ( #156, #88, #6, #8, #263, #60, #189, #134, #288, #239 ) ) ;
#267 = PRODUCT ( '20170-E0W', '20170-E0W', '', ( #45 ) ) ;
#268 = APPROVAL_PERSON_ORGANIZATION ( #153, #165, #212 ) ;
#269 = ORIENTED_EDGE ( 'NONE', *, *, #310, .F. ) ;
#270 = CALENDAR_DATE ( 2018, 1, 6 ) ;
#271 = DIRECTION ( 'NONE',  ( 0.0000000000000000000, -1.000000000000000000, -1.746296913827006200E-016 ) ) ;
#272 = DIRECTION ( 'NONE',  ( -0.0000000000000000000, -1.836909530733566100E-016, 1.000000000000000000 ) ) ;
#273 = EDGE_LOOP ( 'NONE', ( #130, #140, #69, #321 ) ) ;
#274 = APPROVAL_STATUS ( 'not_yet_approved' ) ;
#275 = CARTESIAN_POINT ( 'NONE',  ( 0.0000000000000000000, 0.0000000000000000000, 2.129698129338585000 ) ) ;
#276 = PRODUCT_DEFINITION ( 'UNKNOWN', '', #26, #323 ) ;
#277 = AXIS2_PLACEMENT_3D ( 'NONE', #126, #287, #159 ) ;
#278 = CARTESIAN_POINT ( 'NONE',  ( 0.0000000000000000000, 0.0000000000000000000, 0.5239500978425223300 ) ) ;
#279 = ORGANIZATION ( 'UNSPECIFIED', 'UNSPECIFIED', '' ) ;
#280 = ORIENTED_EDGE ( 'NONE', *, *, #192, .T. ) ;
#281 = EDGE_CURVE ( 'NONE', #302, #248, #35, .T. ) ;
#282 = CIRCLE ( 'NONE', #223, 0.2444322300693973200 ) ;
#283 = DIRECTION ( 'NONE',  ( 0.0000000000000000000, 0.0000000000000000000, 1.000000000000000000 ) ) ;
#284 = AXIS2_PLACEMENT_3D ( 'NONE', #141, #46, #5 ) ;
#285 = FACE_OUTER_BOUND ( 'NONE', #201, .T. ) ;
#286 = ORIENTED_EDGE ( 'NONE', *, *, #281, .F. ) ;
#287 = DIRECTION ( 'NONE',  ( -0.0000000000000000000, -1.836909530733566100E-016, 1.000000000000000000 ) ) ;
#288 = ADVANCED_FACE ( 'NONE', ( #241 ), #183, .T. ) ;
#289 = VERTEX_POINT ( 'NONE', #66 ) ;
#290 = EDGE_LOOP ( 'NONE', ( #97, #119, #23, #96 ) ) ;
#291 = CARTESIAN_POINT ( 'NONE',  ( 0.0000000000000000000, 0.0000000000000000000, 0.5239500978425223300 ) ) ;
#292 = DIRECTION ( 'NONE',  ( 1.000000000000000000, 0.0000000000000000000, 0.0000000000000000000 ) ) ;
#293 = DIRECTION ( 'NONE',  ( -1.000000000000000000, 0.0000000000000000000, 0.0000000000000000000 ) ) ;
#294 = CARTESIAN_POINT ( 'NONE',  ( 0.0000000000000000000, 1.196739014448673000E-017, -0.01364043630470035400 ) ) ;
#295 = DIRECTION ( 'NONE',  ( -1.224646799147353200E-016, -1.000000000000000000, 0.0000000000000000000 ) ) ;
#296 = APPROVAL ( #21, 'UNSPECIFIED' ) ;
#297 = CALENDAR_DATE ( 2018, 1, 6 ) ;
#298 = EDGE_CURVE ( 'NONE', #56, #243, #160, .T. ) ;
#299 = AXIS2_PLACEMENT_3D ( 'NONE', #122, #191, #271 ) ;
#300 = AXIS2_PLACEMENT_3D ( 'NONE', #278, #30, #10 ) ;
#301 = CYLINDRICAL_SURFACE ( 'NONE', #277, 0.2500000000000000000 ) ;
#302 = VERTEX_POINT ( 'NONE', #55 ) ;
#303 = DIRECTION ( 'NONE',  ( 0.0000000000000000000, -1.000000000000000000, -1.707404996040164500E-016 ) ) ;
#304 = AXIS2_PLACEMENT_3D ( 'NONE', #275, #59, #295 ) ;
#305 = EDGE_LOOP ( 'NONE', ( #65, #229, #280, #240 ) ) ;
#306 = CIRCLE ( 'NONE', #328, 2.078188976377952600 ) ;
#307 = AXIS2_PLACEMENT_3D ( 'NONE', #210, #293, #132 ) ;
#308 = EDGE_CURVE ( 'NONE', #56, #248, #209, .T. ) ;
#309 = CARTESIAN_POINT ( 'NONE',  ( 0.0000000000000000000, -0.2444322300693973200, -0.01364043630470037100 ) ) ;
#310 = EDGE_CURVE ( 'NONE', #243, #56, #256, .T. ) ;
#311 = CARTESIAN_POINT ( 'NONE',  ( 0.0000000000000000000, -0.2444322300693973200, -0.01364043630470039900 ) ) ;
#312 = DIRECTION ( 'NONE',  ( 0.0000000000000000000, 1.000000000000000000, 1.314533001914755700E-016 ) ) ;
#313 = DIRECTION ( 'NONE',  ( 0.0000000000000000000, 0.7071067811865520100, -0.7071067811865430200 ) ) ;
#314 = CC_DESIGN_APPROVAL ( #296, ( #276 ) ) ;
#315 = EDGE_CURVE ( 'NONE', #222, #289, #282, .T. ) ;
#316 = ORIENTED_EDGE ( 'NONE', *, *, #192, .F. ) ;
#317 = DIRECTION ( 'NONE',  ( 1.000000000000000000, 0.0000000000000000000, 0.0000000000000000000 ) ) ;
#318 = DIRECTION ( 'NONE',  ( 0.0000000000000000000, -0.7071067811865475700, 0.7071067811865474600 ) ) ;
#319 = COORDINATED_UNIVERSAL_TIME_OFFSET ( 5, 0, .BEHIND. ) ;
#320 = DIRECTION ( 'NONE',  ( 0.0000000000000000000, 0.0000000000000000000, 1.000000000000000000 ) ) ;
#321 = ORIENTED_EDGE ( 'NONE', *, *, #74, .F. ) ;
#322 = CARTESIAN_POINT ( 'NONE',  ( 0.0000000000000000000, 0.0000000000000000000, 2.129698129338585000 ) ) ;
#323 = DESIGN_CONTEXT ( 'detailed design', #135, 'design' ) ;
#324 = ORIENTED_EDGE ( 'NONE', *, *, #315, .F. ) ;
#325 = DIRECTION ( 'NONE',  ( -0.0000000000000000000, -1.836909530733566100E-016, 1.000000000000000000 ) ) ;
#326 = CC_DESIGN_PERSON_AND_ORGANIZATION_ASSIGNMENT ( #98, #249, ( #276 ) ) ;
#327 = SECURITY_CLASSIFICATION_LEVEL ( 'unclassified' ) ;
#328 = AXIS2_PLACEMENT_3D ( 'NONE', #14, #4, #255 ) ;
#329 = ORIENTED_EDGE ( 'NONE', *, *, #28, .T. ) ;
#330 = CARTESIAN_POINT ( 'NONE',  ( 0.0000000000000000000, 0.0000000000000000000, 0.05150915296063259000 ) ) ;
ENDSEC;
END-ISO-10303-21;
