ISO-10303-21;
HEADER;
FILE_DESCRIPTION (( 'STEP AP203' ),
    '1' );
FILE_NAME ('Web Model 18461_18461.step',
    '2021-09-13T17:42:41',
    ( '' ),
    ( '' ),
    'SwSTEP 2.0',
    'SolidWorks 2018',
    '' );
FILE_SCHEMA (( 'CONFIG_CONTROL_DESIGN' ));
ENDSEC;

DATA;
#1 = COORDINATED_UNIVERSAL_TIME_OFFSET ( 5, 0, .BEHIND. ) ;
#2 = EDGE_LOOP ( 'NONE', ( #141, #165, #109, #107 ) ) ;
#3 = DATE_AND_TIME ( #172, #154 ) ;
#4 = DATE_AND_TIME ( #31, #13 ) ;
#5 = CC_DESIGN_PERSON_AND_ORGANIZATION_ASSIGNMENT ( #48, #45, ( #174 ) ) ;
#6 = PERSON_AND_ORGANIZATION ( #59, #157 ) ;
#7 = APPLICATION_PROTOCOL_DEFINITION ( 'international standard', 'config_control_design', 1994, #105 ) ;
#8 = PERSON_AND_ORGANIZATION ( #59, #157 ) ;
#9 = DIRECTION ( 'NONE',  ( -1.000000000000000000, 0.000000000000000000, 0.000000000000000000 ) ) ;
#10 = VERTEX_POINT ( 'NONE', #112 ) ;
#11 = CC_DESIGN_PERSON_AND_ORGANIZATION_ASSIGNMENT ( #150, #75, ( #44 ) ) ;
#12 = ORIENTED_EDGE ( 'NONE', *, *, #76, .T. ) ;
#13 = LOCAL_TIME ( 13, 42, 41.00000000000000000, #58 ) ;
#14 = CC_DESIGN_DATE_AND_TIME_ASSIGNMENT ( #37, #104, ( #174 ) ) ;
#15 = CARTESIAN_POINT ( 'NONE',  ( 0.000000000000000000, 0.000000000000000000, 0.000000000000000000 ) ) ;
#16 = CARTESIAN_POINT ( 'NONE',  ( 0.000000000000000000, 0.000000000000000000, 0.000000000000000000 ) ) ;
#17 = LOCAL_TIME ( 13, 42, 41.00000000000000000, #33 ) ;
#18 = FACE_OUTER_BOUND ( 'NONE', #2, .T. ) ;
#19 = EDGE_CURVE ( 'NONE', #46, #147, #34, .T. ) ;
#20 = APPROVAL_ROLE ( '' ) ;
#21 = APPROVAL_ROLE ( '' ) ;
#22 = APPROVAL ( #72, 'UNSPECIFIED' ) ;
#23 = APPROVAL_STATUS ( 'not_yet_approved' ) ;
#24 = VECTOR ( 'NONE', #113, 1000.000000000000000 ) ;
#25 = APPROVAL_PERSON_ORGANIZATION ( #117, #66, #20 ) ;
#26 = COORDINATED_UNIVERSAL_TIME_OFFSET ( 5, 0, .BEHIND. ) ;
#27 = EDGE_CURVE ( 'NONE', #147, #46, #88, .T. ) ;
#28 = CARTESIAN_POINT ( 'NONE',  ( 0.000000000000000000, 0.000000000000000000, 0.5000000000000000000 ) ) ;
#29 = DIRECTION ( 'NONE',  ( 1.000000000000000000, 0.000000000000000000, 0.000000000000000000 ) ) ;
#30 = CC_DESIGN_APPROVAL ( #171, ( #44 ) ) ;
#31 = CALENDAR_DATE ( 2021, 13, 9 ) ;
#32 =( NAMED_UNIT ( * ) PLANE_ANGLE_UNIT ( ) SI_UNIT ( $, .RADIAN. ) );
#33 = COORDINATED_UNIVERSAL_TIME_OFFSET ( 5, 0, .BEHIND. ) ;
#34 = CIRCLE ( 'NONE', #148, 2.499999999999999556 ) ;
#35 = DIRECTION ( 'NONE',  ( 0.000000000000000000, 0.000000000000000000, 1.000000000000000000 ) ) ;
#36 = DATE_AND_TIME ( #98, #17 ) ;
#37 = DATE_AND_TIME ( #122, #149 ) ;
#38 = DIRECTION ( 'NONE',  ( 1.000000000000000000, 0.000000000000000000, 0.000000000000000000 ) ) ;
#39 = DIRECTION ( 'NONE',  ( 1.000000000000000000, 0.000000000000000000, -0.000000000000000000 ) ) ;
#40 = APPROVAL_PERSON_ORGANIZATION ( #127, #22, #21 ) ;
#41 = PLANE ( 'NONE',  #151 ) ;
#42 = CYLINDRICAL_SURFACE ( 'NONE', #90, 2.499999999999999556 ) ;
#43 = MECHANICAL_CONTEXT ( 'NONE', #77, 'mechanical' ) ;
#44 = PRODUCT_DEFINITION_FORMATION_WITH_SPECIFIED_SOURCE ( 'ANY', '', #136, .NOT_KNOWN. ) ;
#45 = PERSON_AND_ORGANIZATION_ROLE ( 'creator' ) ;
#46 = VERTEX_POINT ( 'NONE', #128 ) ;
#47 = CARTESIAN_POINT ( 'NONE',  ( 0.000000000000000000, 0.000000000000000000, 0.5000000000000000000 ) ) ;
#48 = PERSON_AND_ORGANIZATION ( #59, #157 ) ;
#49 = FACE_OUTER_BOUND ( 'NONE', #79, .T. ) ;
#50 = AXIS2_PLACEMENT_3D ( 'NONE', #55, #91, #29 ) ;
#51 = DIRECTION ( 'NONE',  ( 0.000000000000000000, 0.000000000000000000, 1.000000000000000000 ) ) ;
#52 = DIRECTION ( 'NONE',  ( 0.000000000000000000, 0.000000000000000000, 1.000000000000000000 ) ) ;
#53 = DIRECTION ( 'NONE',  ( 1.000000000000000000, 0.000000000000000000, -0.000000000000000000 ) ) ;
#54 = EDGE_LOOP ( 'NONE', ( #12, #175 ) ) ;
#55 = CARTESIAN_POINT ( 'NONE',  ( 0.000000000000000000, 0.000000000000000000, 0.000000000000000000 ) ) ;
#56 =( GEOMETRIC_REPRESENTATION_CONTEXT ( 3 ) GLOBAL_UNCERTAINTY_ASSIGNED_CONTEXT ( ( #131 ) ) GLOBAL_UNIT_ASSIGNED_CONTEXT ( ( #57, #32, #129 ) ) REPRESENTATION_CONTEXT ( 'NONE', 'WORKASPACE' ) );
#57 =( LENGTH_UNIT ( ) NAMED_UNIT ( * ) SI_UNIT ( .MILLI., .METRE. ) );
#58 = COORDINATED_UNIVERSAL_TIME_OFFSET ( 5, 0, .BEHIND. ) ;
#59 = PERSON ( 'UNSPECIFIED', 'UNSPECIFIED', 'UNSPECIFIED', ('UNSPECIFIED'), ('UNSPECIFIED'), ('UNSPECIFIED') ) ;
#60 = CC_DESIGN_PERSON_AND_ORGANIZATION_ASSIGNMENT ( #111, #116, ( #108 ) ) ;
#61 = DIRECTION ( 'NONE',  ( -0.000000000000000000, -0.000000000000000000, -1.000000000000000000 ) ) ;
#62 = ORIENTED_EDGE ( 'NONE', *, *, #166, .F. ) ;
#63 = LOCAL_TIME ( 13, 42, 41.00000000000000000, #1 ) ;
#64 = COORDINATED_UNIVERSAL_TIME_OFFSET ( 5, 0, .BEHIND. ) ;
#65 = CIRCLE ( 'NONE', #140, 2.499999999999999556 ) ;
#66 = APPROVAL ( #23, 'UNSPECIFIED' ) ;
#67 = PLANE ( 'NONE',  #159 ) ;
#68 = DIRECTION ( 'NONE',  ( 0.000000000000000000, 0.000000000000000000, 1.000000000000000000 ) ) ;
#69 = CARTESIAN_POINT ( 'NONE',  ( 0.000000000000000000, 0.000000000000000000, 0.5000000000000000000 ) ) ;
#70 = APPROVAL_DATE_TIME ( #3, #171 ) ;
#71 = FACE_OUTER_BOUND ( 'NONE', #158, .T. ) ;
#72 = APPROVAL_STATUS ( 'not_yet_approved' ) ;
#73 = PERSON_AND_ORGANIZATION_ROLE ( 'design_supplier' ) ;
#74 = SECURITY_CLASSIFICATION_LEVEL ( 'unclassified' ) ;
#75 = PERSON_AND_ORGANIZATION_ROLE ( 'creator' ) ;
#76 = EDGE_CURVE ( 'NONE', #10, #94, #65, .T. ) ;
#77 = APPLICATION_CONTEXT ( 'configuration controlled 3d designs of mechanical parts and assemblies' ) ;
#78 = VECTOR ( 'NONE', #61, 1000.000000000000000 ) ;
#79 = EDGE_LOOP ( 'NONE', ( #125, #164 ) ) ;
#80 = CC_DESIGN_PERSON_AND_ORGANIZATION_ASSIGNMENT ( #6, #73, ( #44 ) ) ;
#81 = PERSON_AND_ORGANIZATION ( #59, #157 ) ;
#82 = APPROVAL_DATE_TIME ( #4, #22 ) ;
#83 = CARTESIAN_POINT ( 'NONE',  ( 2.499999999999999556, 3.061616997868382648E-16, 0.5000000000000000000 ) ) ;
#84 = EDGE_CURVE ( 'NONE', #94, #46, #153, .T. ) ;
#85 = ADVANCED_BREP_SHAPE_REPRESENTATION ( 'Web Model 18461_18461', ( #99, #50 ), #56 ) ;
#86 = ADVANCED_FACE ( 'NONE', ( #49 ), #67, .F. ) ;
#87 = CARTESIAN_POINT ( 'NONE',  ( 0.000000000000000000, 0.000000000000000000, 0.5000000000000000000 ) ) ;
#88 = CIRCLE ( 'NONE', #152, 2.499999999999999556 ) ;
#89 = APPROVAL_STATUS ( 'not_yet_approved' ) ;
#90 = AXIS2_PLACEMENT_3D ( 'NONE', #28, #156, #97 ) ;
#91 = DIRECTION ( 'NONE',  ( 0.000000000000000000, 0.000000000000000000, 1.000000000000000000 ) ) ;
#92 = ADVANCED_FACE ( 'NONE', ( #115 ), #41, .T. ) ;
#93 = CC_DESIGN_PERSON_AND_ORGANIZATION_ASSIGNMENT ( #81, #160, ( #136 ) ) ;
#94 = VERTEX_POINT ( 'NONE', #83 ) ;
#95 = PRODUCT_DEFINITION_SHAPE ( 'NONE', 'NONE',  #174 ) ;
#96 = CC_DESIGN_SECURITY_CLASSIFICATION ( #108, ( #44 ) ) ;
#97 = DIRECTION ( 'NONE',  ( -1.000000000000000000, 0.000000000000000000, 0.000000000000000000 ) ) ;
#98 = CALENDAR_DATE ( 2021, 13, 9 ) ;
#99 = MANIFOLD_SOLID_BREP ( 'Boss-Extrude1', #110 ) ;
#100 = CARTESIAN_POINT ( 'NONE',  ( 0.000000000000000000, 0.000000000000000000, 0.000000000000000000 ) ) ;
#101 = APPROVAL_ROLE ( '' ) ;
#102 = ORIENTED_EDGE ( 'NONE', *, *, #19, .T. ) ;
#103 = APPROVAL_DATE_TIME ( #132, #66 ) ;
#104 = DATE_TIME_ROLE ( 'creation_date' ) ;
#105 = APPLICATION_CONTEXT ( 'configuration controlled 3d designs of mechanical parts and assemblies' ) ;
#106 = CYLINDRICAL_SURFACE ( 'NONE', #121, 2.499999999999999556 ) ;
#107 = ORIENTED_EDGE ( 'NONE', *, *, #27, .T. ) ;
#108 = SECURITY_CLASSIFICATION ( '', '', #74 ) ;
#109 = ORIENTED_EDGE ( 'NONE', *, *, #170, .T. ) ;
#110 = CLOSED_SHELL ( 'NONE', ( #139, #168, #92, #86 ) ) ;
#111 = PERSON_AND_ORGANIZATION ( #59, #157 ) ;
#112 = CARTESIAN_POINT ( 'NONE',  ( -2.499999999999999556, 0.000000000000000000, 0.5000000000000000000 ) ) ;
#113 = DIRECTION ( 'NONE',  ( -0.000000000000000000, -0.000000000000000000, -1.000000000000000000 ) ) ;
#114 = CARTESIAN_POINT ( 'NONE',  ( 2.499999999999999556, 3.061616997868382648E-16, 0.5000000000000000000 ) ) ;
#115 = FACE_OUTER_BOUND ( 'NONE', #54, .T. ) ;
#116 = PERSON_AND_ORGANIZATION_ROLE ( 'classification_officer' ) ;
#117 = PERSON_AND_ORGANIZATION ( #59, #157 ) ;
#118 = APPROVAL_PERSON_ORGANIZATION ( #8, #171, #101 ) ;
#119 = DESIGN_CONTEXT ( 'detailed design', #105, 'design' ) ;
#120 = ORIENTED_EDGE ( 'NONE', *, *, #170, .F. ) ;
#121 = AXIS2_PLACEMENT_3D ( 'NONE', #47, #173, #9 ) ;
#122 = CALENDAR_DATE ( 2021, 13, 9 ) ;
#123 = CC_DESIGN_DATE_AND_TIME_ASSIGNMENT ( #36, #146, ( #108 ) ) ;
#124 = CARTESIAN_POINT ( 'NONE',  ( -2.499999999999999556, 0.000000000000000000, 0.000000000000000000 ) ) ;
#125 = ORIENTED_EDGE ( 'NONE', *, *, #27, .F. ) ;
#126 = DIRECTION ( 'NONE',  ( 1.000000000000000000, 0.000000000000000000, 0.000000000000000000 ) ) ;
#127 = PERSON_AND_ORGANIZATION ( #59, #157 ) ;
#128 = CARTESIAN_POINT ( 'NONE',  ( 2.499999999999999556, 3.061616997868382648E-16, 0.000000000000000000 ) ) ;
#129 =( NAMED_UNIT ( * ) SI_UNIT ( $, .STERADIAN. ) SOLID_ANGLE_UNIT ( ) );
#130 = ORIENTED_EDGE ( 'NONE', *, *, #84, .T. ) ;
#131 = UNCERTAINTY_MEASURE_WITH_UNIT (LENGTH_MEASURE( 1.000000000000000082E-05 ), #57, 'distance_accuracy_value', 'NONE');
#132 = DATE_AND_TIME ( #137, #63 ) ;
#133 = APPLICATION_PROTOCOL_DEFINITION ( 'international standard', 'config_control_design', 1994, #77 ) ;
#134 = CC_DESIGN_APPROVAL ( #22, ( #108 ) ) ;
#135 = LINE ( 'NONE', #138, #78 ) ;
#136 = PRODUCT ( 'Web Model 18461_18461', 'Web Model 18461_18461', '', ( #43 ) ) ;
#137 = CALENDAR_DATE ( 2021, 13, 9 ) ;
#138 = CARTESIAN_POINT ( 'NONE',  ( -2.499999999999999556, 0.000000000000000000, 0.5000000000000000000 ) ) ;
#139 = ADVANCED_FACE ( 'NONE', ( #71 ), #42, .T. ) ;
#140 = AXIS2_PLACEMENT_3D ( 'NONE', #87, #51, #126 ) ;
#141 = ORIENTED_EDGE ( 'NONE', *, *, #84, .F. ) ;
#142 = SHAPE_DEFINITION_REPRESENTATION ( #95, #85 ) ;
#143 = DIRECTION ( 'NONE',  ( 1.000000000000000000, 0.000000000000000000, 0.000000000000000000 ) ) ;
#144 = PRODUCT_RELATED_PRODUCT_CATEGORY ( 'detail', '', ( #136 ) ) ;
#145 = DIRECTION ( 'NONE',  ( 0.000000000000000000, 0.000000000000000000, 1.000000000000000000 ) ) ;
#146 = DATE_TIME_ROLE ( 'classification_date' ) ;
#147 = VERTEX_POINT ( 'NONE', #124 ) ;
#148 = AXIS2_PLACEMENT_3D ( 'NONE', #16, #52, #38 ) ;
#149 = LOCAL_TIME ( 13, 42, 41.00000000000000000, #64 ) ;
#150 = PERSON_AND_ORGANIZATION ( #59, #157 ) ;
#151 = AXIS2_PLACEMENT_3D ( 'NONE', #69, #145, #53 ) ;
#152 = AXIS2_PLACEMENT_3D ( 'NONE', #15, #155, #143 ) ;
#153 = LINE ( 'NONE', #114, #24 ) ;
#154 = LOCAL_TIME ( 13, 42, 41.00000000000000000, #26 ) ;
#155 = DIRECTION ( 'NONE',  ( 0.000000000000000000, 0.000000000000000000, 1.000000000000000000 ) ) ;
#156 = DIRECTION ( 'NONE',  ( -0.000000000000000000, -0.000000000000000000, -1.000000000000000000 ) ) ;
#157 = ORGANIZATION ( 'UNSPECIFIED', 'UNSPECIFIED', '' ) ;
#158 = EDGE_LOOP ( 'NONE', ( #62, #130, #102, #120 ) ) ;
#159 = AXIS2_PLACEMENT_3D ( 'NONE', #100, #68, #39 ) ;
#160 = PERSON_AND_ORGANIZATION_ROLE ( 'design_owner' ) ;
#161 = AXIS2_PLACEMENT_3D ( 'NONE', #167, #35, #163 ) ;
#162 = CC_DESIGN_APPROVAL ( #66, ( #174 ) ) ;
#163 = DIRECTION ( 'NONE',  ( 1.000000000000000000, 0.000000000000000000, 0.000000000000000000 ) ) ;
#164 = ORIENTED_EDGE ( 'NONE', *, *, #19, .F. ) ;
#165 = ORIENTED_EDGE ( 'NONE', *, *, #76, .F. ) ;
#166 = EDGE_CURVE ( 'NONE', #94, #10, #169, .T. ) ;
#167 = CARTESIAN_POINT ( 'NONE',  ( 0.000000000000000000, 0.000000000000000000, 0.5000000000000000000 ) ) ;
#168 = ADVANCED_FACE ( 'NONE', ( #18 ), #106, .T. ) ;
#169 = CIRCLE ( 'NONE', #161, 2.499999999999999556 ) ;
#170 = EDGE_CURVE ( 'NONE', #10, #147, #135, .T. ) ;
#171 = APPROVAL ( #89, 'UNSPECIFIED' ) ;
#172 = CALENDAR_DATE ( 2021, 13, 9 ) ;
#173 = DIRECTION ( 'NONE',  ( -0.000000000000000000, -0.000000000000000000, -1.000000000000000000 ) ) ;
#174 = PRODUCT_DEFINITION ( 'UNKNOWN', '', #44, #119 ) ;
#175 = ORIENTED_EDGE ( 'NONE', *, *, #166, .T. ) ;
ENDSEC;
END-ISO-10303-21;
