ISO-10303-21;
HEADER;
FILE_DESCRIPTION (( 'STEP AP203' ),
    '1' );
FILE_NAME ('Web Model 46639_46643.step',
    '2017-04-12T15:54:56',
    ( '' ),
    ( '' ),
    'SwSTEP 2.0',
    'SolidWorks 2016',
    '' );
FILE_SCHEMA (( 'CONFIG_CONTROL_DESIGN' ));
ENDSEC;

DATA;
#1 = LOCAL_TIME ( 11, 54, 56.00000000000000000, #46 ) ;
#2 = CARTESIAN_POINT ( 'NONE',  ( -37.50000000000000000, -37.50000000000000000, 0.5000000000000000000 ) ) ;
#3 = ORIENTED_EDGE ( 'NONE', *, *, #33, .T. ) ;
#4 = DATE_AND_TIME ( #40, #83 ) ;
#5 = VECTOR ( 'NONE', #181, 1000.000000000000000 ) ;
#6 = CARTESIAN_POINT ( 'NONE',  ( -37.50000000000000000, 37.50000000000000000, -0.5000000000000000000 ) ) ;
#7 = PERSON_AND_ORGANIZATION ( #229, #169 ) ;
#8 = CC_DESIGN_DATE_AND_TIME_ASSIGNMENT ( #105, #52, ( #220 ) ) ;
#9 = DIRECTION ( 'NONE',  ( 0.0000000000000000000, 1.000000000000000000, 0.0000000000000000000 ) ) ;
#10 = EDGE_LOOP ( 'NONE', ( #202, #187, #107, #198 ) ) ;
#11 = CARTESIAN_POINT ( 'NONE',  ( 37.50000000000000000, 37.50000000000000000, 0.5000000000000000000 ) ) ;
#12 = CARTESIAN_POINT ( 'NONE',  ( 0.0000000000000000000, 0.0000000000000000000, 0.0000000000000000000 ) ) ;
#13 = CARTESIAN_POINT ( 'NONE',  ( -37.50000000000000000, -37.50000000000000000, 0.5000000000000000000 ) ) ;
#14 =( GEOMETRIC_REPRESENTATION_CONTEXT ( 3 ) GLOBAL_UNCERTAINTY_ASSIGNED_CONTEXT ( ( #104 ) ) GLOBAL_UNIT_ASSIGNED_CONTEXT ( ( #138, #93, #122 ) ) REPRESENTATION_CONTEXT ( 'NONE', 'WORKASPACE' ) );
#15 = CLOSED_SHELL ( 'NONE', ( #142, #98, #166, #23, #94, #160 ) ) ;
#16 = PERSON_AND_ORGANIZATION ( #229, #169 ) ;
#17 = ADVANCED_BREP_SHAPE_REPRESENTATION ( 'Web Model 46639_46643', ( #135, #75 ), #14 ) ;
#18 = DATE_AND_TIME ( #171, #66 ) ;
#19 = APPROVAL_DATE_TIME ( #223, #170 ) ;
#20 = DIRECTION ( 'NONE',  ( 1.000000000000000000, 0.0000000000000000000, 0.0000000000000000000 ) ) ;
#21 = APPROVAL ( #117, 'UNSPECIFIED' ) ;
#22 = EDGE_CURVE ( 'NONE', #156, #228, #215, .T. ) ;
#23 = ADVANCED_FACE ( 'NONE', ( #233 ), #137, .F. ) ;
#24 = CALENDAR_DATE ( 2017, 12, 4 ) ;
#25 = CARTESIAN_POINT ( 'NONE',  ( -37.50000000000000000, 37.50000000000000000, -0.5000000000000000000 ) ) ;
#26 = CARTESIAN_POINT ( 'NONE',  ( 37.50000000000000000, 37.50000000000000000, 0.5000000000000000000 ) ) ;
#27 = AXIS2_PLACEMENT_3D ( 'NONE', #141, #39, #121 ) ;
#28 = VERTEX_POINT ( 'NONE', #2 ) ;
#29 = APPROVAL_STATUS ( 'not_yet_approved' ) ;
#30 = VECTOR ( 'NONE', #41, 1000.000000000000000 ) ;
#31 = ORIENTED_EDGE ( 'NONE', *, *, #49, .T. ) ;
#32 = PERSON_AND_ORGANIZATION ( #229, #169 ) ;
#33 = EDGE_CURVE ( 'NONE', #151, #175, #218, .T. ) ;
#34 = CC_DESIGN_APPROVAL ( #21, ( #220 ) ) ;
#35 = LINE ( 'NONE', #110, #174 ) ;
#36 = PERSON_AND_ORGANIZATION_ROLE ( 'design_owner' ) ;
#37 = EDGE_LOOP ( 'NONE', ( #3, #162, #116, #118 ) ) ;
#38 = PERSON_AND_ORGANIZATION ( #229, #169 ) ;
#39 = DIRECTION ( 'NONE',  ( 1.000000000000000000, 0.0000000000000000000, -0.0000000000000000000 ) ) ;
#40 = CALENDAR_DATE ( 2017, 12, 4 ) ;
#41 = DIRECTION ( 'NONE',  ( -0.0000000000000000000, -0.0000000000000000000, -1.000000000000000000 ) ) ;
#42 = LINE ( 'NONE', #67, #178 ) ;
#43 = EDGE_CURVE ( 'NONE', #28, #151, #147, .T. ) ;
#44 = PLANE ( 'NONE',  #27 ) ;
#45 = DIRECTION ( 'NONE',  ( -0.0000000000000000000, 0.0000000000000000000, 1.000000000000000000 ) ) ;
#46 = COORDINATED_UNIVERSAL_TIME_OFFSET ( 5, 0, .BEHIND. ) ;
#47 = CARTESIAN_POINT ( 'NONE',  ( -37.50000000000000000, 37.50000000000000000, 0.5000000000000000000 ) ) ;
#48 = CALENDAR_DATE ( 2017, 12, 4 ) ;
#49 = EDGE_CURVE ( 'NONE', #151, #228, #193, .T. ) ;
#50 = CC_DESIGN_SECURITY_CLASSIFICATION ( #220, ( #158 ) ) ;
#51 = CARTESIAN_POINT ( 'NONE',  ( -37.50000000000000000, -37.50000000000000000, 0.5000000000000000000 ) ) ;
#52 = DATE_TIME_ROLE ( 'classification_date' ) ;
#53 = PERSON_AND_ORGANIZATION ( #229, #169 ) ;
#54 = CARTESIAN_POINT ( 'NONE',  ( 37.50000000000000000, 37.50000000000000000, -0.5000000000000000000 ) ) ;
#55 = PERSON_AND_ORGANIZATION_ROLE ( 'design_supplier' ) ;
#56 = VECTOR ( 'NONE', #82, 1000.000000000000000 ) ;
#57 = APPROVAL_PERSON_ORGANIZATION ( #7, #21, #152 ) ;
#58 = CARTESIAN_POINT ( 'NONE',  ( -37.50000000000000000, 37.50000000000000000, 0.5000000000000000000 ) ) ;
#59 = DATE_TIME_ROLE ( 'creation_date' ) ;
#60 = PRODUCT_RELATED_PRODUCT_CATEGORY ( 'detail', '', ( #140 ) ) ;
#61 = CARTESIAN_POINT ( 'NONE',  ( -37.50000000000000000, 37.50000000000000000, 0.5000000000000000000 ) ) ;
#62 = CARTESIAN_POINT ( 'NONE',  ( -37.50000000000000000, -37.50000000000000000, -0.5000000000000000000 ) ) ;
#63 = CALENDAR_DATE ( 2017, 12, 4 ) ;
#64 = ORIENTED_EDGE ( 'NONE', *, *, #190, .F. ) ;
#65 = CARTESIAN_POINT ( 'NONE',  ( -37.50000000000000000, -37.50000000000000000, 0.5000000000000000000 ) ) ;
#66 = LOCAL_TIME ( 11, 54, 56.00000000000000000, #173 ) ;
#67 = CARTESIAN_POINT ( 'NONE',  ( -37.50000000000000000, 37.50000000000000000, -0.5000000000000000000 ) ) ;
#68 = VERTEX_POINT ( 'NONE', #61 ) ;
#69 = EDGE_LOOP ( 'NONE', ( #145, #64, #172, #31 ) ) ;
#70 = DIRECTION ( 'NONE',  ( -1.000000000000000000, 0.0000000000000000000, 0.0000000000000000000 ) ) ;
#71 = FACE_OUTER_BOUND ( 'NONE', #37, .T. ) ;
#72 = DIRECTION ( 'NONE',  ( -0.0000000000000000000, 1.000000000000000000, -0.0000000000000000000 ) ) ;
#73 = DATE_AND_TIME ( #63, #1 ) ;
#74 = DIRECTION ( 'NONE',  ( 0.0000000000000000000, -0.0000000000000000000, 1.000000000000000000 ) ) ;
#75 = AXIS2_PLACEMENT_3D ( 'NONE', #12, #234, #191 ) ;
#76 = ORIENTED_EDGE ( 'NONE', *, *, #43, .F. ) ;
#77 = DIRECTION ( 'NONE',  ( 1.000000000000000000, 0.0000000000000000000, 0.0000000000000000000 ) ) ;
#78 = ORIENTED_EDGE ( 'NONE', *, *, #226, .T. ) ;
#79 = LINE ( 'NONE', #58, #183 ) ;
#80 = CARTESIAN_POINT ( 'NONE',  ( 37.50000000000000000, -37.50000000000000000, 0.5000000000000000000 ) ) ;
#81 = DIRECTION ( 'NONE',  ( 0.0000000000000000000, 0.0000000000000000000, 1.000000000000000000 ) ) ;
#82 = DIRECTION ( 'NONE',  ( -0.0000000000000000000, -0.0000000000000000000, -1.000000000000000000 ) ) ;
#83 = LOCAL_TIME ( 11, 54, 56.00000000000000000, #168 ) ;
#84 = FACE_OUTER_BOUND ( 'NONE', #69, .T. ) ;
#85 = ORIENTED_EDGE ( 'NONE', *, *, #161, .F. ) ;
#86 = ORIENTED_EDGE ( 'NONE', *, *, #161, .T. ) ;
#87 = CARTESIAN_POINT ( 'NONE',  ( 37.50000000000000000, 37.50000000000000000, 0.5000000000000000000 ) ) ;
#88 = CC_DESIGN_PERSON_AND_ORGANIZATION_ASSIGNMENT ( #32, #36, ( #140 ) ) ;
#89 = CARTESIAN_POINT ( 'NONE',  ( 37.50000000000000000, -37.50000000000000000, 0.5000000000000000000 ) ) ;
#90 = EDGE_LOOP ( 'NONE', ( #96, #85, #167, #227 ) ) ;
#91 = APPROVAL_DATE_TIME ( #4, #109 ) ;
#92 = APPROVAL_PERSON_ORGANIZATION ( #216, #170, #95 ) ;
#93 =( NAMED_UNIT ( * ) PLANE_ANGLE_UNIT ( ) SI_UNIT ( $, .RADIAN. ) );
#94 = ADVANCED_FACE ( 'NONE', ( #71 ), #99, .T. ) ;
#95 = APPROVAL_ROLE ( '' ) ;
#96 = ORIENTED_EDGE ( 'NONE', *, *, #203, .T. ) ;
#97 = APPROVAL_ROLE ( '' ) ;
#98 = ADVANCED_FACE ( 'NONE', ( #207 ), #236, .F. ) ;
#99 = PLANE ( 'NONE',  #164 ) ;
#100 = PRODUCT_DEFINITION ( 'UNKNOWN', '', #158, #231 ) ;
#101 = CARTESIAN_POINT ( 'NONE',  ( -37.50000000000000000, 37.50000000000000000, 0.5000000000000000000 ) ) ;
#102 = EDGE_LOOP ( 'NONE', ( #103, #163, #76, #78 ) ) ;
#103 = ORIENTED_EDGE ( 'NONE', *, *, #22, .T. ) ;
#104 = UNCERTAINTY_MEASURE_WITH_UNIT (LENGTH_MEASURE( 1.000000000000000100E-005 ), #138, 'distance_accuracy_value', 'NONE');
#105 = DATE_AND_TIME ( #24, #211 ) ;
#106 = EDGE_LOOP ( 'NONE', ( #159, #225, #235, #86 ) ) ;
#107 = ORIENTED_EDGE ( 'NONE', *, *, #155, .F. ) ;
#108 = DIRECTION ( 'NONE',  ( 0.0000000000000000000, -1.000000000000000000, 0.0000000000000000000 ) ) ;
#109 = APPROVAL ( #125, 'UNSPECIFIED' ) ;
#110 = CARTESIAN_POINT ( 'NONE',  ( -37.50000000000000000, 37.50000000000000000, 0.5000000000000000000 ) ) ;
#111 = LINE ( 'NONE', #11, #30 ) ;
#112 = VECTOR ( 'NONE', #131, 1000.000000000000000 ) ;
#113 = LINE ( 'NONE', #47, #56 ) ;
#114 = FACE_OUTER_BOUND ( 'NONE', #10, .T. ) ;
#115 = PLANE ( 'NONE',  #213 ) ;
#116 = ORIENTED_EDGE ( 'NONE', *, *, #184, .T. ) ;
#117 = APPROVAL_STATUS ( 'not_yet_approved' ) ;
#118 = ORIENTED_EDGE ( 'NONE', *, *, #43, .T. ) ;
#119 = VECTOR ( 'NONE', #224, 1000.000000000000000 ) ;
#120 = VECTOR ( 'NONE', #123, 1000.000000000000000 ) ;
#121 = DIRECTION ( 'NONE',  ( -0.0000000000000000000, 0.0000000000000000000, -1.000000000000000000 ) ) ;
#122 =( NAMED_UNIT ( * ) SI_UNIT ( $, .STERADIAN. ) SOLID_ANGLE_UNIT ( ) );
#123 = DIRECTION ( 'NONE',  ( -0.0000000000000000000, -0.0000000000000000000, -1.000000000000000000 ) ) ;
#124 = CC_DESIGN_APPROVAL ( #109, ( #100 ) ) ;
#125 = APPROVAL_STATUS ( 'not_yet_approved' ) ;
#126 = COORDINATED_UNIVERSAL_TIME_OFFSET ( 5, 0, .BEHIND. ) ;
#127 = SECURITY_CLASSIFICATION_LEVEL ( 'unclassified' ) ;
#128 = PERSON_AND_ORGANIZATION_ROLE ( 'classification_officer' ) ;
#129 = VERTEX_POINT ( 'NONE', #6 ) ;
#130 = VECTOR ( 'NONE', #72, 1000.000000000000000 ) ;
#131 = DIRECTION ( 'NONE',  ( 1.000000000000000000, 0.0000000000000000000, 0.0000000000000000000 ) ) ;
#132 = MECHANICAL_CONTEXT ( 'NONE', #200, 'mechanical' ) ;
#133 = VECTOR ( 'NONE', #221, 1000.000000000000000 ) ;
#134 = CC_DESIGN_PERSON_AND_ORGANIZATION_ASSIGNMENT ( #38, #217, ( #100 ) ) ;
#135 = MANIFOLD_SOLID_BREP ( 'Boss-Extrude1', #15 ) ;
#136 = DIRECTION ( 'NONE',  ( 1.000000000000000000, 0.0000000000000000000, 0.0000000000000000000 ) ) ;
#137 = PLANE ( 'NONE',  #139 ) ;
#138 =( LENGTH_UNIT ( ) NAMED_UNIT ( * ) SI_UNIT ( .MILLI., .METRE. ) );
#139 = AXIS2_PLACEMENT_3D ( 'NONE', #65, #9, #74 ) ;
#140 = PRODUCT ( 'Web Model 46639_46643', 'Web Model 46639_46643', '', ( #132 ) ) ;
#141 = CARTESIAN_POINT ( 'NONE',  ( -37.50000000000000000, 37.50000000000000000, 0.5000000000000000000 ) ) ;
#142 = ADVANCED_FACE ( 'NONE', ( #84 ), #115, .F. ) ;
#143 = PERSON_AND_ORGANIZATION ( #229, #169 ) ;
#144 = APPROVAL_DATE_TIME ( #73, #21 ) ;
#145 = ORIENTED_EDGE ( 'NONE', *, *, #230, .T. ) ;
#146 = PRODUCT_DEFINITION_SHAPE ( 'NONE', 'NONE',  #100 ) ;
#147 = LINE ( 'NONE', #13, #222 ) ;
#148 = CC_DESIGN_DATE_AND_TIME_ASSIGNMENT ( #18, #59, ( #100 ) ) ;
#149 = PERSON_AND_ORGANIZATION_ROLE ( 'creator' ) ;
#150 = PERSON_AND_ORGANIZATION ( #229, #169 ) ;
#151 = VERTEX_POINT ( 'NONE', #80 ) ;
#152 = APPROVAL_ROLE ( '' ) ;
#153 = LINE ( 'NONE', #51, #5 ) ;
#154 = APPLICATION_PROTOCOL_DEFINITION ( 'international standard', 'config_control_design', 1994, #189 ) ;
#155 = EDGE_CURVE ( 'NONE', #129, #156, #210, .T. ) ;
#156 = VERTEX_POINT ( 'NONE', #177 ) ;
#157 = DIRECTION ( 'NONE',  ( -1.000000000000000000, -0.0000000000000000000, -0.0000000000000000000 ) ) ;
#158 = PRODUCT_DEFINITION_FORMATION_WITH_SPECIFIED_SOURCE ( 'ANY', '', #140, .NOT_KNOWN. ) ;
#159 = ORIENTED_EDGE ( 'NONE', *, *, #155, .T. ) ;
#160 = ADVANCED_FACE ( 'NONE', ( #114 ), #194, .F. ) ;
#161 = EDGE_CURVE ( 'NONE', #68, #129, #113, .T. ) ;
#162 = ORIENTED_EDGE ( 'NONE', *, *, #176, .T. ) ;
#163 = ORIENTED_EDGE ( 'NONE', *, *, #49, .F. ) ;
#164 = AXIS2_PLACEMENT_3D ( 'NONE', #192, #204, #20 ) ;
#165 = DIRECTION ( 'NONE',  ( 0.0000000000000000000, -0.0000000000000000000, -1.000000000000000000 ) ) ;
#166 = ADVANCED_FACE ( 'NONE', ( #209 ), #44, .F. ) ;
#167 = ORIENTED_EDGE ( 'NONE', *, *, #176, .F. ) ;
#168 = COORDINATED_UNIVERSAL_TIME_OFFSET ( 5, 0, .BEHIND. ) ;
#169 = ORGANIZATION ( 'UNSPECIFIED', 'UNSPECIFIED', '' ) ;
#170 = APPROVAL ( #29, 'UNSPECIFIED' ) ;
#171 = CALENDAR_DATE ( 2017, 12, 4 ) ;
#172 = ORIENTED_EDGE ( 'NONE', *, *, #33, .F. ) ;
#173 = COORDINATED_UNIVERSAL_TIME_OFFSET ( 5, 0, .BEHIND. ) ;
#174 = VECTOR ( 'NONE', #157, 1000.000000000000000 ) ;
#175 = VERTEX_POINT ( 'NONE', #26 ) ;
#176 = EDGE_CURVE ( 'NONE', #175, #68, #35, .T. ) ;
#177 = CARTESIAN_POINT ( 'NONE',  ( -37.50000000000000000, -37.50000000000000000, -0.5000000000000000000 ) ) ;
#178 = VECTOR ( 'NONE', #201, 1000.000000000000000 ) ;
#179 = CC_DESIGN_APPROVAL ( #170, ( #158 ) ) ;
#180 = CARTESIAN_POINT ( 'NONE',  ( 37.50000000000000000, 37.50000000000000000, 0.5000000000000000000 ) ) ;
#181 = DIRECTION ( 'NONE',  ( -0.0000000000000000000, -0.0000000000000000000, -1.000000000000000000 ) ) ;
#182 = LINE ( 'NONE', #54, #119 ) ;
#183 = VECTOR ( 'NONE', #208, 1000.000000000000000 ) ;
#184 = EDGE_CURVE ( 'NONE', #68, #28, #79, .T. ) ;
#185 = AXIS2_PLACEMENT_3D ( 'NONE', #101, #108, #165 ) ;
#186 = COORDINATED_UNIVERSAL_TIME_OFFSET ( 5, 0, .BEHIND. ) ;
#187 = ORIENTED_EDGE ( 'NONE', *, *, #22, .F. ) ;
#188 = CARTESIAN_POINT ( 'NONE',  ( 37.50000000000000000, -37.50000000000000000, -0.5000000000000000000 ) ) ;
#189 = APPLICATION_CONTEXT ( 'configuration controlled 3d designs of mechanical parts and assemblies' ) ;
#190 = EDGE_CURVE ( 'NONE', #175, #195, #111, .T. ) ;
#191 = DIRECTION ( 'NONE',  ( 1.000000000000000000, 0.0000000000000000000, 0.0000000000000000000 ) ) ;
#192 = CARTESIAN_POINT ( 'NONE',  ( 0.0000000000000000000, 0.0000000000000000000, 0.5000000000000000000 ) ) ;
#193 = LINE ( 'NONE', #89, #120 ) ;
#194 = PLANE ( 'NONE',  #237 ) ;
#195 = VERTEX_POINT ( 'NONE', #212 ) ;
#196 = CC_DESIGN_PERSON_AND_ORGANIZATION_ASSIGNMENT ( #150, #149, ( #158 ) ) ;
#197 = SHAPE_DEFINITION_REPRESENTATION ( #146, #17 ) ;
#198 = ORIENTED_EDGE ( 'NONE', *, *, #203, .F. ) ;
#199 = APPROVAL_PERSON_ORGANIZATION ( #16, #109, #97 ) ;
#200 = APPLICATION_CONTEXT ( 'configuration controlled 3d designs of mechanical parts and assemblies' ) ;
#201 = DIRECTION ( 'NONE',  ( -1.000000000000000000, -0.0000000000000000000, -0.0000000000000000000 ) ) ;
#202 = ORIENTED_EDGE ( 'NONE', *, *, #230, .F. ) ;
#203 = EDGE_CURVE ( 'NONE', #195, #129, #42, .T. ) ;
#204 = DIRECTION ( 'NONE',  ( -0.0000000000000000000, 0.0000000000000000000, 1.000000000000000000 ) ) ;
#205 = APPLICATION_PROTOCOL_DEFINITION ( 'international standard', 'config_control_design', 1994, #200 ) ;
#206 = CC_DESIGN_PERSON_AND_ORGANIZATION_ASSIGNMENT ( #143, #55, ( #158 ) ) ;
#207 = FACE_OUTER_BOUND ( 'NONE', #90, .T. ) ;
#208 = DIRECTION ( 'NONE',  ( 0.0000000000000000000, -1.000000000000000000, 0.0000000000000000000 ) ) ;
#209 = FACE_OUTER_BOUND ( 'NONE', #106, .T. ) ;
#210 = LINE ( 'NONE', #25, #133 ) ;
#211 = LOCAL_TIME ( 11, 54, 56.00000000000000000, #126 ) ;
#212 = CARTESIAN_POINT ( 'NONE',  ( 37.50000000000000000, 37.50000000000000000, -0.5000000000000000000 ) ) ;
#213 = AXIS2_PLACEMENT_3D ( 'NONE', #180, #70, #81 ) ;
#214 = LOCAL_TIME ( 11, 54, 56.00000000000000000, #186 ) ;
#215 = LINE ( 'NONE', #62, #112 ) ;
#216 = PERSON_AND_ORGANIZATION ( #229, #169 ) ;
#217 = PERSON_AND_ORGANIZATION_ROLE ( 'creator' ) ;
#218 = LINE ( 'NONE', #87, #130 ) ;
#219 = CARTESIAN_POINT ( 'NONE',  ( 0.0000000000000000000, 0.0000000000000000000, -0.5000000000000000000 ) ) ;
#220 = SECURITY_CLASSIFICATION ( '', '', #127 ) ;
#221 = DIRECTION ( 'NONE',  ( 0.0000000000000000000, -1.000000000000000000, 0.0000000000000000000 ) ) ;
#222 = VECTOR ( 'NONE', #136, 1000.000000000000000 ) ;
#223 = DATE_AND_TIME ( #48, #214 ) ;
#224 = DIRECTION ( 'NONE',  ( -0.0000000000000000000, 1.000000000000000000, -0.0000000000000000000 ) ) ;
#225 = ORIENTED_EDGE ( 'NONE', *, *, #226, .F. ) ;
#226 = EDGE_CURVE ( 'NONE', #28, #156, #153, .T. ) ;
#227 = ORIENTED_EDGE ( 'NONE', *, *, #190, .T. ) ;
#228 = VERTEX_POINT ( 'NONE', #188 ) ;
#229 = PERSON ( 'UNSPECIFIED', 'UNSPECIFIED', 'UNSPECIFIED', ('UNSPECIFIED'), ('UNSPECIFIED'), ('UNSPECIFIED') ) ;
#230 = EDGE_CURVE ( 'NONE', #228, #195, #182, .T. ) ;
#231 = DESIGN_CONTEXT ( 'detailed design', #189, 'design' ) ;
#232 = CC_DESIGN_PERSON_AND_ORGANIZATION_ASSIGNMENT ( #53, #128, ( #220 ) ) ;
#233 = FACE_OUTER_BOUND ( 'NONE', #102, .T. ) ;
#234 = DIRECTION ( 'NONE',  ( 0.0000000000000000000, 0.0000000000000000000, 1.000000000000000000 ) ) ;
#235 = ORIENTED_EDGE ( 'NONE', *, *, #184, .F. ) ;
#236 = PLANE ( 'NONE',  #185 ) ;
#237 = AXIS2_PLACEMENT_3D ( 'NONE', #219, #45, #77 ) ;
ENDSEC;
END-ISO-10303-21;
