ISO-10303-21;
HEADER;
FILE_DESCRIPTION (( 'STEP AP203' ),
    '1' );
FILE_NAME ('Web Model 64397MX_15769.step',
    '2020-10-19T15:37:04',
    ( '' ),
    ( '' ),
    'SwSTEP 2.0',
    'SolidWorks 2018',
    '' );
FILE_SCHEMA (( 'CONFIG_CONTROL_DESIGN' ));
ENDSEC;

DATA;
#1 = AXIS2_PLACEMENT_3D ( 'NONE', #138, #191, #171 ) ;
#2 = LINE ( 'NONE', #134, #223 ) ;
#3 = ORIENTED_EDGE ( 'NONE', *, *, #32, .T. ) ;
#4 = CARTESIAN_POINT ( 'NONE',  ( -6.350000000000000533, -6.350000000000000533, -3.000000000000000000 ) ) ;
#5 = DIRECTION ( 'NONE',  ( -0.0000000000000000000, -0.0000000000000000000, -1.000000000000000000 ) ) ;
#6 = FACE_OUTER_BOUND ( 'NONE', #202, .T. ) ;
#7 = CARTESIAN_POINT ( 'NONE',  ( 6.349999999999998757, -6.349999999999998757, -3.000000000000000000 ) ) ;
#8 = LINE ( 'NONE', #117, #46 ) ;
#9 = EDGE_CURVE ( 'NONE', #130, #72, #25, .T. ) ;
#10 = DIRECTION ( 'NONE',  ( 0.0000000000000000000, -0.0000000000000000000, 1.000000000000000000 ) ) ;
#11 = ORIENTED_EDGE ( 'NONE', *, *, #227, .T. ) ;
#12 = VECTOR ( 'NONE', #221, 1000.000000000000000 ) ;
#13 =( LENGTH_UNIT ( ) NAMED_UNIT ( * ) SI_UNIT ( .MILLI., .METRE. ) );
#14 = ORGANIZATION ( 'UNSPECIFIED', 'UNSPECIFIED', '' ) ;
#15 = APPROVAL_STATUS ( 'not_yet_approved' ) ;
#16 = EDGE_LOOP ( 'NONE', ( #70, #31, #100, #236 ) ) ;
#17 = CALENDAR_DATE ( 2020, 19, 10 ) ;
#18 = ORIENTED_EDGE ( 'NONE', *, *, #110, .F. ) ;
#19 = VECTOR ( 'NONE', #26, 1000.000000000000000 ) ;
#20 = PRODUCT_RELATED_PRODUCT_CATEGORY ( 'detail', '', ( #91 ) ) ;
#21 = ADVANCED_FACE ( 'NONE', ( #6 ), #158, .F. ) ;
#22 = ORIENTED_EDGE ( 'NONE', *, *, #49, .T. ) ;
#23 =( GEOMETRIC_REPRESENTATION_CONTEXT ( 3 ) GLOBAL_UNCERTAINTY_ASSIGNED_CONTEXT ( ( #36 ) ) GLOBAL_UNIT_ASSIGNED_CONTEXT ( ( #13, #126, #95 ) ) REPRESENTATION_CONTEXT ( 'NONE', 'WORKASPACE' ) );
#24 = DATE_AND_TIME ( #43, #125 ) ;
#25 = LINE ( 'NONE', #146, #160 ) ;
#26 = DIRECTION ( 'NONE',  ( -0.0000000000000000000, -0.0000000000000000000, -1.000000000000000000 ) ) ;
#27 = DATE_AND_TIME ( #123, #168 ) ;
#28 = AXIS2_PLACEMENT_3D ( 'NONE', #66, #137, #208 ) ;
#29 = PLANE ( 'NONE',  #184 ) ;
#30 = APPROVAL_PERSON_ORGANIZATION ( #79, #145, #140 ) ;
#31 = ORIENTED_EDGE ( 'NONE', *, *, #32, .F. ) ;
#32 = EDGE_CURVE ( 'NONE', #99, #76, #118, .T. ) ;
#33 = CC_DESIGN_DATE_AND_TIME_ASSIGNMENT ( #90, #142, ( #217 ) ) ;
#34 = LOCAL_TIME ( 11, 37, 4.000000000000000000, #214 ) ;
#35 = CC_DESIGN_APPROVAL ( #38, ( #217 ) ) ;
#36 = UNCERTAINTY_MEASURE_WITH_UNIT (LENGTH_MEASURE( 1.000000000000000082E-05 ), #13, 'distance_accuracy_value', 'NONE');
#37 = PERSON_AND_ORGANIZATION ( #103, #14 ) ;
#38 = APPROVAL ( #78, 'UNSPECIFIED' ) ;
#39 = ADVANCED_FACE ( 'NONE', ( #207 ), #149, .F. ) ;
#40 = DIRECTION ( 'NONE',  ( 1.000000000000000000, 1.365923996832131609E-16, -0.0000000000000000000 ) ) ;
#41 = CARTESIAN_POINT ( 'NONE',  ( 6.349999999999998757, -6.349999999999998757, 3.000000000000000000 ) ) ;
#42 = PLANE ( 'NONE',  #28 ) ;
#43 = CALENDAR_DATE ( 2020, 19, 10 ) ;
#44 = AXIS2_PLACEMENT_3D ( 'NONE', #105, #186, #206 ) ;
#45 = DIRECTION ( 'NONE',  ( 1.365923996832131609E-16, -1.000000000000000000, 0.0000000000000000000 ) ) ;
#46 = VECTOR ( 'NONE', #5, 1000.000000000000000 ) ;
#47 = SHAPE_DEFINITION_REPRESENTATION ( #198, #228 ) ;
#48 = ORIENTED_EDGE ( 'NONE', *, *, #153, .F. ) ;
#49 = EDGE_CURVE ( 'NONE', #99, #237, #65, .T. ) ;
#50 = COORDINATED_UNIVERSAL_TIME_OFFSET ( 5, 0, .BEHIND. ) ;
#51 = ORIENTED_EDGE ( 'NONE', *, *, #110, .T. ) ;
#52 = ORIENTED_EDGE ( 'NONE', *, *, #9, .F. ) ;
#53 = APPROVAL ( #192, 'UNSPECIFIED' ) ;
#54 = VECTOR ( 'NONE', #205, 1000.000000000000000 ) ;
#55 = ORIENTED_EDGE ( 'NONE', *, *, #227, .F. ) ;
#56 = PERSON_AND_ORGANIZATION_ROLE ( 'classification_officer' ) ;
#57 = PERSON_AND_ORGANIZATION_ROLE ( 'design_owner' ) ;
#58 = LINE ( 'NONE', #116, #120 ) ;
#59 = FACE_OUTER_BOUND ( 'NONE', #232, .T. ) ;
#60 = ORIENTED_EDGE ( 'NONE', *, *, #82, .T. ) ;
#61 = DIRECTION ( 'NONE',  ( 0.0000000000000000000, 1.000000000000000000, 0.0000000000000000000 ) ) ;
#62 = EDGE_CURVE ( 'NONE', #130, #99, #107, .T. ) ;
#63 = ORIENTED_EDGE ( 'NONE', *, *, #62, .T. ) ;
#64 = DIRECTION ( 'NONE',  ( -1.000000000000000000, -1.365923996832131609E-16, 0.0000000000000000000 ) ) ;
#65 = LINE ( 'NONE', #204, #12 ) ;
#66 = CARTESIAN_POINT ( 'NONE',  ( -6.350000000000000533, -6.350000000000000533, 3.000000000000000000 ) ) ;
#67 = EDGE_CURVE ( 'NONE', #226, #130, #58, .T. ) ;
#68 = CARTESIAN_POINT ( 'NONE',  ( -6.350000000000000533, 6.349999999999998757, 3.000000000000000000 ) ) ;
#69 = CLOSED_SHELL ( 'NONE', ( #178, #21, #235, #39, #195, #215 ) ) ;
#70 = ORIENTED_EDGE ( 'NONE', *, *, #203, .T. ) ;
#71 = DIRECTION ( 'NONE',  ( 0.0000000000000000000, 0.0000000000000000000, 1.000000000000000000 ) ) ;
#72 = VERTEX_POINT ( 'NONE', #218 ) ;
#73 = PERSON_AND_ORGANIZATION_ROLE ( 'creator' ) ;
#74 = DESIGN_CONTEXT ( 'detailed design', #112, 'design' ) ;
#75 = EDGE_CURVE ( 'NONE', #144, #152, #216, .T. ) ;
#76 = VERTEX_POINT ( 'NONE', #83 ) ;
#77 = DATE_TIME_ROLE ( 'classification_date' ) ;
#78 = APPROVAL_STATUS ( 'not_yet_approved' ) ;
#79 = PERSON_AND_ORGANIZATION ( #103, #14 ) ;
#80 = MANIFOLD_SOLID_BREP ( 'Boss-Extrude1', #69 ) ;
#81 = FACE_OUTER_BOUND ( 'NONE', #173, .T. ) ;
#82 = EDGE_CURVE ( 'NONE', #76, #144, #87, .T. ) ;
#83 = CARTESIAN_POINT ( 'NONE',  ( 6.349999999999998757, 6.350000000000000533, -3.000000000000000000 ) ) ;
#84 = PERSON_AND_ORGANIZATION ( #103, #14 ) ;
#85 = DIRECTION ( 'NONE',  ( -0.0000000000000000000, -0.0000000000000000000, -1.000000000000000000 ) ) ;
#86 = ORIENTED_EDGE ( 'NONE', *, *, #153, .T. ) ;
#87 = LINE ( 'NONE', #129, #104 ) ;
#88 = DIRECTION ( 'NONE',  ( 1.000000000000000000, 0.0000000000000000000, -0.0000000000000000000 ) ) ;
#89 = AXIS2_PLACEMENT_3D ( 'NONE', #170, #108, #71 ) ;
#90 = DATE_AND_TIME ( #154, #106 ) ;
#91 = PRODUCT ( 'Web Model 64397MX_15769', 'Web Model 64397MX_15769', '', ( #139 ) ) ;
#92 = CC_DESIGN_PERSON_AND_ORGANIZATION_ASSIGNMENT ( #143, #57, ( #91 ) ) ;
#93 = LOCAL_TIME ( 11, 37, 4.000000000000000000, #209 ) ;
#94 = ORIENTED_EDGE ( 'NONE', *, *, #156, .F. ) ;
#95 =( NAMED_UNIT ( * ) SI_UNIT ( $, .STERADIAN. ) SOLID_ANGLE_UNIT ( ) );
#96 = CC_DESIGN_PERSON_AND_ORGANIZATION_ASSIGNMENT ( #210, #109, ( #135 ) ) ;
#97 = PERSON_AND_ORGANIZATION ( #103, #14 ) ;
#98 = CARTESIAN_POINT ( 'NONE',  ( 6.349999999999998757, -6.349999999999998757, 3.000000000000000000 ) ) ;
#99 = VERTEX_POINT ( 'NONE', #131 ) ;
#100 = ORIENTED_EDGE ( 'NONE', *, *, #62, .F. ) ;
#101 = CARTESIAN_POINT ( 'NONE',  ( -6.350000000000000533, -6.350000000000000533, 3.000000000000000000 ) ) ;
#102 = CC_DESIGN_PERSON_AND_ORGANIZATION_ASSIGNMENT ( #37, #56, ( #161 ) ) ;
#103 = PERSON ( 'UNSPECIFIED', 'UNSPECIFIED', 'UNSPECIFIED', ('UNSPECIFIED'), ('UNSPECIFIED'), ('UNSPECIFIED') ) ;
#104 = VECTOR ( 'NONE', #147, 1000.000000000000000 ) ;
#105 = CARTESIAN_POINT ( 'NONE',  ( 0.0000000000000000000, 0.0000000000000000000, 3.000000000000000000 ) ) ;
#106 = LOCAL_TIME ( 11, 37, 4.000000000000000000, #199 ) ;
#107 = LINE ( 'NONE', #98, #183 ) ;
#108 = DIRECTION ( 'NONE',  ( -1.000000000000000000, 0.0000000000000000000, 0.0000000000000000000 ) ) ;
#109 = PERSON_AND_ORGANIZATION_ROLE ( 'creator' ) ;
#110 = EDGE_CURVE ( 'NONE', #152, #72, #176, .T. ) ;
#111 = ORIENTED_EDGE ( 'NONE', *, *, #75, .F. ) ;
#112 = APPLICATION_CONTEXT ( 'configuration controlled 3d designs of mechanical parts and assemblies' ) ;
#113 = APPROVAL_PERSON_ORGANIZATION ( #122, #38, #233 ) ;
#114 = AXIS2_PLACEMENT_3D ( 'NONE', #219, #180, #64 ) ;
#115 = CARTESIAN_POINT ( 'NONE',  ( -6.350000000000000533, -6.350000000000000533, -3.000000000000000000 ) ) ;
#116 = CARTESIAN_POINT ( 'NONE',  ( 6.349999999999998757, -6.349999999999998757, 3.000000000000000000 ) ) ;
#117 = CARTESIAN_POINT ( 'NONE',  ( -6.350000000000000533, -6.350000000000000533, 3.000000000000000000 ) ) ;
#118 = LINE ( 'NONE', #133, #19 ) ;
#119 = DIRECTION ( 'NONE',  ( -0.0000000000000000000, -0.0000000000000000000, -1.000000000000000000 ) ) ;
#120 = VECTOR ( 'NONE', #182, 1000.000000000000000 ) ;
#121 = DIRECTION ( 'NONE',  ( 0.0000000000000000000, 1.000000000000000000, 0.0000000000000000000 ) ) ;
#122 = PERSON_AND_ORGANIZATION ( #103, #14 ) ;
#123 = CALENDAR_DATE ( 2020, 19, 10 ) ;
#124 = CC_DESIGN_DATE_AND_TIME_ASSIGNMENT ( #27, #77, ( #161 ) ) ;
#125 = LOCAL_TIME ( 11, 37, 4.000000000000000000, #50 ) ;
#126 =( NAMED_UNIT ( * ) PLANE_ANGLE_UNIT ( ) SI_UNIT ( $, .RADIAN. ) );
#127 = ORIENTED_EDGE ( 'NONE', *, *, #82, .F. ) ;
#128 = CC_DESIGN_APPROVAL ( #53, ( #135 ) ) ;
#129 = CARTESIAN_POINT ( 'NONE',  ( 6.349999999999998757, 6.350000000000000533, -3.000000000000000000 ) ) ;
#130 = VERTEX_POINT ( 'NONE', #41 ) ;
#131 = CARTESIAN_POINT ( 'NONE',  ( 6.349999999999998757, 6.350000000000000533, 3.000000000000000000 ) ) ;
#132 = CC_DESIGN_PERSON_AND_ORGANIZATION_ASSIGNMENT ( #84, #212, ( #135 ) ) ;
#133 = CARTESIAN_POINT ( 'NONE',  ( 6.349999999999998757, 6.350000000000000533, 3.000000000000000000 ) ) ;
#134 = CARTESIAN_POINT ( 'NONE',  ( 6.349999999999998757, -6.349999999999998757, -3.000000000000000000 ) ) ;
#135 = PRODUCT_DEFINITION_FORMATION_WITH_SPECIFIED_SOURCE ( 'ANY', '', #91, .NOT_KNOWN. ) ;
#136 = EDGE_LOOP ( 'NONE', ( #111, #127, #189, #18 ) ) ;
#137 = DIRECTION ( 'NONE',  ( 1.000000000000000000, 0.0000000000000000000, 0.0000000000000000000 ) ) ;
#138 = CARTESIAN_POINT ( 'NONE',  ( 0.0000000000000000000, 0.0000000000000000000, 0.0000000000000000000 ) ) ;
#139 = MECHANICAL_CONTEXT ( 'NONE', #172, 'mechanical' ) ;
#140 = APPROVAL_ROLE ( '' ) ;
#141 = PERSON_AND_ORGANIZATION ( #103, #14 ) ;
#142 = DATE_TIME_ROLE ( 'creation_date' ) ;
#143 = PERSON_AND_ORGANIZATION ( #103, #14 ) ;
#144 = VERTEX_POINT ( 'NONE', #200 ) ;
#145 = APPROVAL ( #15, 'UNSPECIFIED' ) ;
#146 = CARTESIAN_POINT ( 'NONE',  ( 6.349999999999998757, -6.349999999999998757, 3.000000000000000000 ) ) ;
#147 = DIRECTION ( 'NONE',  ( -1.000000000000000000, -1.365923996832131609E-16, 0.0000000000000000000 ) ) ;
#148 = EDGE_LOOP ( 'NONE', ( #60, #55, #150, #3 ) ) ;
#149 = PLANE ( 'NONE',  #229 ) ;
#150 = ORIENTED_EDGE ( 'NONE', *, *, #49, .F. ) ;
#151 = APPROVAL_DATE_TIME ( #157, #145 ) ;
#152 = VERTEX_POINT ( 'NONE', #4 ) ;
#153 = EDGE_CURVE ( 'NONE', #226, #152, #8, .T. ) ;
#154 = CALENDAR_DATE ( 2020, 19, 10 ) ;
#155 = ORIENTED_EDGE ( 'NONE', *, *, #67, .F. ) ;
#156 = EDGE_CURVE ( 'NONE', #237, #226, #231, .T. ) ;
#157 = DATE_AND_TIME ( #17, #93 ) ;
#158 = PLANE ( 'NONE',  #114 ) ;
#159 = FACE_OUTER_BOUND ( 'NONE', #136, .T. ) ;
#160 = VECTOR ( 'NONE', #85, 1000.000000000000000 ) ;
#161 = SECURITY_CLASSIFICATION ( '', '', #230 ) ;
#162 = DIRECTION ( 'NONE',  ( 1.000000000000000000, 1.365923996832131609E-16, 0.0000000000000000000 ) ) ;
#163 = CARTESIAN_POINT ( 'NONE',  ( -6.350000000000000533, -6.350000000000000533, 3.000000000000000000 ) ) ;
#164 = LINE ( 'NONE', #68, #187 ) ;
#165 = CC_DESIGN_SECURITY_CLASSIFICATION ( #161, ( #135 ) ) ;
#166 = DATE_AND_TIME ( #194, #34 ) ;
#167 = PLANE ( 'NONE',  #44 ) ;
#168 = LOCAL_TIME ( 11, 37, 4.000000000000000000, #234 ) ;
#169 = FACE_OUTER_BOUND ( 'NONE', #16, .T. ) ;
#170 = CARTESIAN_POINT ( 'NONE',  ( 6.349999999999998757, -6.349999999999998757, 3.000000000000000000 ) ) ;
#171 = DIRECTION ( 'NONE',  ( 1.000000000000000000, 0.0000000000000000000, 0.0000000000000000000 ) ) ;
#172 = APPLICATION_CONTEXT ( 'configuration controlled 3d designs of mechanical parts and assemblies' ) ;
#173 = EDGE_LOOP ( 'NONE', ( #201, #48, #94, #11 ) ) ;
#174 = CC_DESIGN_PERSON_AND_ORGANIZATION_ASSIGNMENT ( #97, #73, ( #217 ) ) ;
#175 = APPROVAL_DATE_TIME ( #24, #53 ) ;
#176 = LINE ( 'NONE', #7, #225 ) ;
#177 = APPROVAL_PERSON_ORGANIZATION ( #141, #53, #213 ) ;
#178 = ADVANCED_FACE ( 'NONE', ( #81 ), #42, .F. ) ;
#179 = ORIENTED_EDGE ( 'NONE', *, *, #156, .T. ) ;
#180 = DIRECTION ( 'NONE',  ( -1.365923996832131609E-16, 1.000000000000000000, 0.0000000000000000000 ) ) ;
#181 = CARTESIAN_POINT ( 'NONE',  ( 6.349999999999998757, 6.350000000000000533, 3.000000000000000000 ) ) ;
#182 = DIRECTION ( 'NONE',  ( 1.000000000000000000, 1.365923996832131609E-16, -0.0000000000000000000 ) ) ;
#183 = VECTOR ( 'NONE', #61, 1000.000000000000000 ) ;
#184 = AXIS2_PLACEMENT_3D ( 'NONE', #185, #10, #88 ) ;
#185 = CARTESIAN_POINT ( 'NONE',  ( 0.0000000000000000000, 0.0000000000000000000, -3.000000000000000000 ) ) ;
#186 = DIRECTION ( 'NONE',  ( 0.0000000000000000000, -0.0000000000000000000, 1.000000000000000000 ) ) ;
#187 = VECTOR ( 'NONE', #119, 1000.000000000000000 ) ;
#188 = CC_DESIGN_APPROVAL ( #145, ( #161 ) ) ;
#189 = ORIENTED_EDGE ( 'NONE', *, *, #203, .F. ) ;
#190 = PLANE ( 'NONE',  #89 ) ;
#191 = DIRECTION ( 'NONE',  ( 0.0000000000000000000, 0.0000000000000000000, 1.000000000000000000 ) ) ;
#192 = APPROVAL_STATUS ( 'not_yet_approved' ) ;
#193 = APPLICATION_PROTOCOL_DEFINITION ( 'international standard', 'config_control_design', 1994, #112 ) ;
#194 = CALENDAR_DATE ( 2020, 19, 10 ) ;
#195 = ADVANCED_FACE ( 'NONE', ( #59 ), #167, .T. ) ;
#196 = VECTOR ( 'NONE', #197, 1000.000000000000000 ) ;
#197 = DIRECTION ( 'NONE',  ( -0.0000000000000000000, -1.000000000000000000, -0.0000000000000000000 ) ) ;
#198 = PRODUCT_DEFINITION_SHAPE ( 'NONE', 'NONE',  #217 ) ;
#199 = COORDINATED_UNIVERSAL_TIME_OFFSET ( 5, 0, .BEHIND. ) ;
#200 = CARTESIAN_POINT ( 'NONE',  ( -6.350000000000000533, 6.349999999999998757, -3.000000000000000000 ) ) ;
#201 = ORIENTED_EDGE ( 'NONE', *, *, #75, .T. ) ;
#202 = EDGE_LOOP ( 'NONE', ( #51, #52, #155, #86 ) ) ;
#203 = EDGE_CURVE ( 'NONE', #72, #76, #2, .T. ) ;
#204 = CARTESIAN_POINT ( 'NONE',  ( 6.349999999999998757, 6.350000000000000533, 3.000000000000000000 ) ) ;
#205 = DIRECTION ( 'NONE',  ( -0.0000000000000000000, -1.000000000000000000, -0.0000000000000000000 ) ) ;
#206 = DIRECTION ( 'NONE',  ( 1.000000000000000000, 0.0000000000000000000, -0.0000000000000000000 ) ) ;
#207 = FACE_OUTER_BOUND ( 'NONE', #148, .T. ) ;
#208 = DIRECTION ( 'NONE',  ( 0.0000000000000000000, 0.0000000000000000000, -1.000000000000000000 ) ) ;
#209 = COORDINATED_UNIVERSAL_TIME_OFFSET ( 5, 0, .BEHIND. ) ;
#210 = PERSON_AND_ORGANIZATION ( #103, #14 ) ;
#211 = APPLICATION_PROTOCOL_DEFINITION ( 'international standard', 'config_control_design', 1994, #172 ) ;
#212 = PERSON_AND_ORGANIZATION_ROLE ( 'design_supplier' ) ;
#213 = APPROVAL_ROLE ( '' ) ;
#214 = COORDINATED_UNIVERSAL_TIME_OFFSET ( 5, 0, .BEHIND. ) ;
#215 = ADVANCED_FACE ( 'NONE', ( #159 ), #29, .F. ) ;
#216 = LINE ( 'NONE', #115, #54 ) ;
#217 = PRODUCT_DEFINITION ( 'UNKNOWN', '', #135, #74 ) ;
#218 = CARTESIAN_POINT ( 'NONE',  ( 6.349999999999998757, -6.349999999999998757, -3.000000000000000000 ) ) ;
#219 = CARTESIAN_POINT ( 'NONE',  ( 6.349999999999998757, -6.349999999999998757, 3.000000000000000000 ) ) ;
#220 = ORIENTED_EDGE ( 'NONE', *, *, #67, .T. ) ;
#221 = DIRECTION ( 'NONE',  ( -1.000000000000000000, -1.365923996832131609E-16, 0.0000000000000000000 ) ) ;
#222 = APPROVAL_DATE_TIME ( #166, #38 ) ;
#223 = VECTOR ( 'NONE', #121, 1000.000000000000000 ) ;
#224 = CARTESIAN_POINT ( 'NONE',  ( -6.350000000000000533, 6.349999999999998757, 3.000000000000000000 ) ) ;
#225 = VECTOR ( 'NONE', #40, 1000.000000000000000 ) ;
#226 = VERTEX_POINT ( 'NONE', #101 ) ;
#227 = EDGE_CURVE ( 'NONE', #237, #144, #164, .T. ) ;
#228 = ADVANCED_BREP_SHAPE_REPRESENTATION ( 'Web Model 64397MX_15769', ( #80, #1 ), #23 ) ;
#229 = AXIS2_PLACEMENT_3D ( 'NONE', #181, #45, #162 ) ;
#230 = SECURITY_CLASSIFICATION_LEVEL ( 'unclassified' ) ;
#231 = LINE ( 'NONE', #163, #196 ) ;
#232 = EDGE_LOOP ( 'NONE', ( #179, #220, #63, #22 ) ) ;
#233 = APPROVAL_ROLE ( '' ) ;
#234 = COORDINATED_UNIVERSAL_TIME_OFFSET ( 5, 0, .BEHIND. ) ;
#235 = ADVANCED_FACE ( 'NONE', ( #169 ), #190, .F. ) ;
#236 = ORIENTED_EDGE ( 'NONE', *, *, #9, .T. ) ;
#237 = VERTEX_POINT ( 'NONE', #224 ) ;
ENDSEC;
END-ISO-10303-21;
