ISO-10303-21;
HEADER;
FILE_DESCRIPTION (( 'STEP AP203' ),
    '1' );
FILE_NAME ('Web Model 45464_84474.step',
    '2019-01-07T15:37:59',
    ( '' ),
    ( '' ),
    'SwSTEP 2.0',
    'SolidWorks 2016',
    '' );
FILE_SCHEMA (( 'CONFIG_CONTROL_DESIGN' ));
ENDSEC;

DATA;
#1 = EDGE_CURVE ( 'NONE', #137, #174, #39, .T. ) ;
#2 = VECTOR ( 'NONE', #128, 1000.000000000000000 ) ;
#3 = DIRECTION ( 'NONE',  ( -1.000000000000000000, 0.0000000000000000000, 0.0000000000000000000 ) ) ;
#4 = CC_DESIGN_APPROVAL ( #161, ( #129 ) ) ;
#5 = ORIENTED_EDGE ( 'NONE', *, *, #158, .F. ) ;
#6 = CYLINDRICAL_SURFACE ( 'NONE', #26, 10.00000000000000000 ) ;
#7 = APPROVAL_STATUS ( 'not_yet_approved' ) ;
#8 = AXIS2_PLACEMENT_3D ( 'NONE', #68, #165, #3 ) ;
#9 = ADVANCED_FACE ( 'NONE', ( #81 ), #11, .F. ) ;
#10 = EDGE_LOOP ( 'NONE', ( #12, #88, #103, #66 ) ) ;
#11 = PLANE ( 'NONE',  #146 ) ;
#12 = ORIENTED_EDGE ( 'NONE', *, *, #102, .F. ) ;
#13 = DATE_AND_TIME ( #58, #48 ) ;
#14 = DIRECTION ( 'NONE',  ( 0.0000000000000000000, 0.0000000000000000000, 1.000000000000000000 ) ) ;
#15 = CARTESIAN_POINT ( 'NONE',  ( 10.00000000000000000, 1.224646799147353300E-015, 1.000000000000000000 ) ) ;
#16 = FACE_OUTER_BOUND ( 'NONE', #10, .T. ) ;
#17 = APPROVAL ( #35, 'UNSPECIFIED' ) ;
#18 =( GEOMETRIC_REPRESENTATION_CONTEXT ( 3 ) GLOBAL_UNCERTAINTY_ASSIGNED_CONTEXT ( ( #38 ) ) GLOBAL_UNIT_ASSIGNED_CONTEXT ( ( #135, #90, #143 ) ) REPRESENTATION_CONTEXT ( 'NONE', 'WORKASPACE' ) );
#19 = APPROVAL_DATE_TIME ( #80, #67 ) ;
#20 = APPLICATION_PROTOCOL_DEFINITION ( 'international standard', 'config_control_design', 1994, #86 ) ;
#21 = APPROVAL_STATUS ( 'not_yet_approved' ) ;
#22 = LINE ( 'NONE', #15, #62 ) ;
#23 = AXIS2_PLACEMENT_3D ( 'NONE', #63, #101, #106 ) ;
#24 = ADVANCED_FACE ( 'NONE', ( #74 ), #6, .T. ) ;
#25 = APPROVAL_DATE_TIME ( #65, #161 ) ;
#26 = AXIS2_PLACEMENT_3D ( 'NONE', #27, #45, #114 ) ;
#27 = CARTESIAN_POINT ( 'NONE',  ( 0.0000000000000000000, 0.0000000000000000000, 1.000000000000000000 ) ) ;
#28 = DIRECTION ( 'NONE',  ( 1.000000000000000000, 0.0000000000000000000, 0.0000000000000000000 ) ) ;
#29 = APPROVAL_DATE_TIME ( #162, #17 ) ;
#30 = DIRECTION ( 'NONE',  ( 0.0000000000000000000, 0.0000000000000000000, 1.000000000000000000 ) ) ;
#31 = EDGE_LOOP ( 'NONE', ( #5, #52 ) ) ;
#32 = LOCAL_TIME ( 10, 37, 59.00000000000000000, #144 ) ;
#33 = PERSON_AND_ORGANIZATION_ROLE ( 'design_owner' ) ;
#34 = LOCAL_TIME ( 10, 37, 59.00000000000000000, #71 ) ;
#35 = APPROVAL_STATUS ( 'not_yet_approved' ) ;
#36 = PERSON ( 'UNSPECIFIED', 'UNSPECIFIED', 'UNSPECIFIED', ('UNSPECIFIED'), ('UNSPECIFIED'), ('UNSPECIFIED') ) ;
#37 = AXIS2_PLACEMENT_3D ( 'NONE', #70, #82, #50 ) ;
#38 = UNCERTAINTY_MEASURE_WITH_UNIT (LENGTH_MEASURE( 1.000000000000000100E-005 ), #135, 'distance_accuracy_value', 'NONE');
#39 = CIRCLE ( 'NONE', #37, 10.00000000000000000 ) ;
#40 = EDGE_CURVE ( 'NONE', #118, #174, #60, .T. ) ;
#41 = APPROVAL_PERSON_ORGANIZATION ( #104, #17, #87 ) ;
#42 = PERSON_AND_ORGANIZATION ( #36, #109 ) ;
#43 = CC_DESIGN_PERSON_AND_ORGANIZATION_ASSIGNMENT ( #134, #91, ( #129 ) ) ;
#44 = CARTESIAN_POINT ( 'NONE',  ( 0.0000000000000000000, 0.0000000000000000000, 1.000000000000000000 ) ) ;
#45 = DIRECTION ( 'NONE',  ( -0.0000000000000000000, -0.0000000000000000000, -1.000000000000000000 ) ) ;
#46 = ORIENTED_EDGE ( 'NONE', *, *, #102, .T. ) ;
#47 = AXIS2_PLACEMENT_3D ( 'NONE', #97, #112, #28 ) ;
#48 = LOCAL_TIME ( 10, 37, 59.00000000000000000, #127 ) ;
#49 = DIRECTION ( 'NONE',  ( 1.000000000000000000, 0.0000000000000000000, -0.0000000000000000000 ) ) ;
#50 = DIRECTION ( 'NONE',  ( 1.000000000000000000, 0.0000000000000000000, 0.0000000000000000000 ) ) ;
#51 = PERSON_AND_ORGANIZATION_ROLE ( 'creator' ) ;
#52 = ORIENTED_EDGE ( 'NONE', *, *, #1, .F. ) ;
#53 = PERSON_AND_ORGANIZATION ( #36, #109 ) ;
#54 = DIRECTION ( 'NONE',  ( 0.0000000000000000000, 0.0000000000000000000, 1.000000000000000000 ) ) ;
#55 = CC_DESIGN_PERSON_AND_ORGANIZATION_ASSIGNMENT ( #166, #122, ( #129 ) ) ;
#56 = DATE_TIME_ROLE ( 'classification_date' ) ;
#57 = CYLINDRICAL_SURFACE ( 'NONE', #8, 10.00000000000000000 ) ;
#58 = CALENDAR_DATE ( 2019, 7, 1 ) ;
#59 = FACE_OUTER_BOUND ( 'NONE', #79, .T. ) ;
#60 = LINE ( 'NONE', #84, #2 ) ;
#61 = CARTESIAN_POINT ( 'NONE',  ( -10.00000000000000000, 0.0000000000000000000, 1.000000000000000000 ) ) ;
#62 = VECTOR ( 'NONE', #126, 1000.000000000000000 ) ;
#63 = CARTESIAN_POINT ( 'NONE',  ( 0.0000000000000000000, 0.0000000000000000000, 0.0000000000000000000 ) ) ;
#64 = EDGE_LOOP ( 'NONE', ( #124, #46, #130, #100 ) ) ;
#65 = DATE_AND_TIME ( #138, #34 ) ;
#66 = ORIENTED_EDGE ( 'NONE', *, *, #158, .T. ) ;
#67 = APPROVAL ( #7, 'UNSPECIFIED' ) ;
#68 = CARTESIAN_POINT ( 'NONE',  ( 0.0000000000000000000, 0.0000000000000000000, 1.000000000000000000 ) ) ;
#69 = MANIFOLD_SOLID_BREP ( 'Boss-Extrude1', #113 ) ;
#70 = CARTESIAN_POINT ( 'NONE',  ( 0.0000000000000000000, 0.0000000000000000000, -1.000000000000000000 ) ) ;
#71 = COORDINATED_UNIVERSAL_TIME_OFFSET ( 5, 0, .BEHIND. ) ;
#72 = CC_DESIGN_SECURITY_CLASSIFICATION ( #173, ( #129 ) ) ;
#73 = LOCAL_TIME ( 10, 37, 59.00000000000000000, #110 ) ;
#74 = FACE_OUTER_BOUND ( 'NONE', #64, .T. ) ;
#75 = CARTESIAN_POINT ( 'NONE',  ( -10.00000000000000000, 0.0000000000000000000, -1.000000000000000000 ) ) ;
#76 = PRODUCT ( 'Web Model 45464_84474', 'Web Model 45464_84474', '', ( #105 ) ) ;
#77 = SECURITY_CLASSIFICATION_LEVEL ( 'unclassified' ) ;
#78 = PERSON_AND_ORGANIZATION ( #36, #109 ) ;
#79 = EDGE_LOOP ( 'NONE', ( #140, #149 ) ) ;
#80 = DATE_AND_TIME ( #89, #150 ) ;
#81 = FACE_OUTER_BOUND ( 'NONE', #31, .T. ) ;
#82 = DIRECTION ( 'NONE',  ( 0.0000000000000000000, 0.0000000000000000000, 1.000000000000000000 ) ) ;
#83 = CC_DESIGN_PERSON_AND_ORGANIZATION_ASSIGNMENT ( #159, #51, ( #155 ) ) ;
#84 = CARTESIAN_POINT ( 'NONE',  ( -10.00000000000000000, 0.0000000000000000000, 1.000000000000000000 ) ) ;
#85 = CIRCLE ( 'NONE', #163, 10.00000000000000000 ) ;
#86 = APPLICATION_CONTEXT ( 'configuration controlled 3d designs of mechanical parts and assemblies' ) ;
#87 = APPROVAL_ROLE ( '' ) ;
#88 = ORIENTED_EDGE ( 'NONE', *, *, #99, .F. ) ;
#89 = CALENDAR_DATE ( 2019, 7, 1 ) ;
#90 =( NAMED_UNIT ( * ) PLANE_ANGLE_UNIT ( ) SI_UNIT ( $, .RADIAN. ) );
#91 = PERSON_AND_ORGANIZATION_ROLE ( 'design_supplier' ) ;
#92 = CARTESIAN_POINT ( 'NONE',  ( 10.00000000000000000, 1.224646799147353300E-015, 1.000000000000000000 ) ) ;
#93 = CC_DESIGN_DATE_AND_TIME_ASSIGNMENT ( #13, #157, ( #155 ) ) ;
#94 = PRODUCT_RELATED_PRODUCT_CATEGORY ( 'detail', '', ( #76 ) ) ;
#95 = COORDINATED_UNIVERSAL_TIME_OFFSET ( 5, 0, .BEHIND. ) ;
#96 = CC_DESIGN_APPROVAL ( #67, ( #155 ) ) ;
#97 = CARTESIAN_POINT ( 'NONE',  ( 0.0000000000000000000, 0.0000000000000000000, 1.000000000000000000 ) ) ;
#98 = CARTESIAN_POINT ( 'NONE',  ( 0.0000000000000000000, 0.0000000000000000000, 1.000000000000000000 ) ) ;
#99 = EDGE_CURVE ( 'NONE', #118, #153, #85, .T. ) ;
#100 = ORIENTED_EDGE ( 'NONE', *, *, #40, .F. ) ;
#101 = DIRECTION ( 'NONE',  ( 0.0000000000000000000, 0.0000000000000000000, 1.000000000000000000 ) ) ;
#102 = EDGE_CURVE ( 'NONE', #153, #137, #22, .T. ) ;
#103 = ORIENTED_EDGE ( 'NONE', *, *, #40, .T. ) ;
#104 = PERSON_AND_ORGANIZATION ( #36, #109 ) ;
#105 = MECHANICAL_CONTEXT ( 'NONE', #86, 'mechanical' ) ;
#106 = DIRECTION ( 'NONE',  ( 1.000000000000000000, 0.0000000000000000000, 0.0000000000000000000 ) ) ;
#107 = CC_DESIGN_PERSON_AND_ORGANIZATION_ASSIGNMENT ( #78, #33, ( #76 ) ) ;
#108 = ADVANCED_BREP_SHAPE_REPRESENTATION ( 'Web Model 45464_84474', ( #69, #23 ), #18 ) ;
#109 = ORGANIZATION ( 'UNSPECIFIED', 'UNSPECIFIED', '' ) ;
#110 = COORDINATED_UNIVERSAL_TIME_OFFSET ( 5, 0, .BEHIND. ) ;
#111 = DIRECTION ( 'NONE',  ( 1.000000000000000000, 0.0000000000000000000, -0.0000000000000000000 ) ) ;
#112 = DIRECTION ( 'NONE',  ( 0.0000000000000000000, 0.0000000000000000000, 1.000000000000000000 ) ) ;
#113 = CLOSED_SHELL ( 'NONE', ( #24, #148, #136, #9 ) ) ;
#114 = DIRECTION ( 'NONE',  ( -1.000000000000000000, 0.0000000000000000000, 0.0000000000000000000 ) ) ;
#115 = PERSON_AND_ORGANIZATION_ROLE ( 'classification_officer' ) ;
#116 = CIRCLE ( 'NONE', #151, 10.00000000000000000 ) ;
#117 = CC_DESIGN_PERSON_AND_ORGANIZATION_ASSIGNMENT ( #168, #115, ( #173 ) ) ;
#118 = VERTEX_POINT ( 'NONE', #61 ) ;
#119 = APPROVAL_PERSON_ORGANIZATION ( #53, #161, #132 ) ;
#120 = DIRECTION ( 'NONE',  ( 1.000000000000000000, 0.0000000000000000000, 0.0000000000000000000 ) ) ;
#121 = EDGE_CURVE ( 'NONE', #153, #118, #145, .T. ) ;
#122 = PERSON_AND_ORGANIZATION_ROLE ( 'creator' ) ;
#123 = APPROVAL_ROLE ( '' ) ;
#124 = ORIENTED_EDGE ( 'NONE', *, *, #121, .F. ) ;
#125 = CC_DESIGN_DATE_AND_TIME_ASSIGNMENT ( #141, #56, ( #173 ) ) ;
#126 = DIRECTION ( 'NONE',  ( -0.0000000000000000000, -0.0000000000000000000, -1.000000000000000000 ) ) ;
#127 = COORDINATED_UNIVERSAL_TIME_OFFSET ( 5, 0, .BEHIND. ) ;
#128 = DIRECTION ( 'NONE',  ( -0.0000000000000000000, -0.0000000000000000000, -1.000000000000000000 ) ) ;
#129 = PRODUCT_DEFINITION_FORMATION_WITH_SPECIFIED_SOURCE ( 'ANY', '', #76, .NOT_KNOWN. ) ;
#130 = ORIENTED_EDGE ( 'NONE', *, *, #1, .T. ) ;
#131 = APPROVAL_PERSON_ORGANIZATION ( #42, #67, #123 ) ;
#132 = APPROVAL_ROLE ( '' ) ;
#133 = DESIGN_CONTEXT ( 'detailed design', #172, 'design' ) ;
#134 = PERSON_AND_ORGANIZATION ( #36, #109 ) ;
#135 =( LENGTH_UNIT ( ) NAMED_UNIT ( * ) SI_UNIT ( .MILLI., .METRE. ) );
#136 = ADVANCED_FACE ( 'NONE', ( #59 ), #164, .T. ) ;
#137 = VERTEX_POINT ( 'NONE', #152 ) ;
#138 = CALENDAR_DATE ( 2019, 7, 1 ) ;
#139 = DIRECTION ( 'NONE',  ( 0.0000000000000000000, 0.0000000000000000000, 1.000000000000000000 ) ) ;
#140 = ORIENTED_EDGE ( 'NONE', *, *, #99, .T. ) ;
#141 = DATE_AND_TIME ( #175, #32 ) ;
#142 = CARTESIAN_POINT ( 'NONE',  ( 0.0000000000000000000, 0.0000000000000000000, -1.000000000000000000 ) ) ;
#143 =( NAMED_UNIT ( * ) SI_UNIT ( $, .STERADIAN. ) SOLID_ANGLE_UNIT ( ) );
#144 = COORDINATED_UNIVERSAL_TIME_OFFSET ( 5, 0, .BEHIND. ) ;
#145 = CIRCLE ( 'NONE', #47, 10.00000000000000000 ) ;
#146 = AXIS2_PLACEMENT_3D ( 'NONE', #142, #30, #111 ) ;
#147 = CC_DESIGN_APPROVAL ( #17, ( #173 ) ) ;
#148 = ADVANCED_FACE ( 'NONE', ( #16 ), #57, .T. ) ;
#149 = ORIENTED_EDGE ( 'NONE', *, *, #121, .T. ) ;
#150 = LOCAL_TIME ( 10, 37, 59.00000000000000000, #95 ) ;
#151 = AXIS2_PLACEMENT_3D ( 'NONE', #171, #54, #120 ) ;
#152 = CARTESIAN_POINT ( 'NONE',  ( 10.00000000000000000, 1.224646799147353300E-015, -1.000000000000000000 ) ) ;
#153 = VERTEX_POINT ( 'NONE', #92 ) ;
#154 = DIRECTION ( 'NONE',  ( 1.000000000000000000, 0.0000000000000000000, 0.0000000000000000000 ) ) ;
#155 = PRODUCT_DEFINITION ( 'UNKNOWN', '', #129, #133 ) ;
#156 = AXIS2_PLACEMENT_3D ( 'NONE', #98, #14, #49 ) ;
#157 = DATE_TIME_ROLE ( 'creation_date' ) ;
#158 = EDGE_CURVE ( 'NONE', #174, #137, #116, .T. ) ;
#159 = PERSON_AND_ORGANIZATION ( #36, #109 ) ;
#160 = PRODUCT_DEFINITION_SHAPE ( 'NONE', 'NONE',  #155 ) ;
#161 = APPROVAL ( #21, 'UNSPECIFIED' ) ;
#162 = DATE_AND_TIME ( #170, #73 ) ;
#163 = AXIS2_PLACEMENT_3D ( 'NONE', #44, #139, #154 ) ;
#164 = PLANE ( 'NONE',  #156 ) ;
#165 = DIRECTION ( 'NONE',  ( -0.0000000000000000000, -0.0000000000000000000, -1.000000000000000000 ) ) ;
#166 = PERSON_AND_ORGANIZATION ( #36, #109 ) ;
#167 = APPLICATION_PROTOCOL_DEFINITION ( 'international standard', 'config_control_design', 1994, #172 ) ;
#168 = PERSON_AND_ORGANIZATION ( #36, #109 ) ;
#169 = SHAPE_DEFINITION_REPRESENTATION ( #160, #108 ) ;
#170 = CALENDAR_DATE ( 2019, 7, 1 ) ;
#171 = CARTESIAN_POINT ( 'NONE',  ( 0.0000000000000000000, 0.0000000000000000000, -1.000000000000000000 ) ) ;
#172 = APPLICATION_CONTEXT ( 'configuration controlled 3d designs of mechanical parts and assemblies' ) ;
#173 = SECURITY_CLASSIFICATION ( '', '', #77 ) ;
#174 = VERTEX_POINT ( 'NONE', #75 ) ;
#175 = CALENDAR_DATE ( 2019, 7, 1 ) ;
ENDSEC;
END-ISO-10303-21;
