ISO-10303-21;
HEADER;
FILE_DESCRIPTION (( 'STEP AP203' ),
    '1' );
FILE_NAME ('Web Model 39242_39242.step',
    '2018-07-25T17:14:26',
    ( '' ),
    ( '' ),
    'SwSTEP 2.0',
    'SolidWorks 2016',
    '' );
FILE_SCHEMA (( 'CONFIG_CONTROL_DESIGN' ));
ENDSEC;

DATA;
#1 = PLANE ( 'NONE',  #36 ) ;
#2 = PERSON_AND_ORGANIZATION ( #140, #29 ) ;
#3 = EDGE_LOOP ( 'NONE', ( #65, #25, #39, #174 ) ) ;
#4 = DIRECTION ( 'NONE',  ( 1.000000000000000000, 0.0000000000000000000, -0.0000000000000000000 ) ) ;
#5 = DIRECTION ( 'NONE',  ( 1.000000000000000000, 0.0000000000000000000, 0.0000000000000000000 ) ) ;
#6 = CARTESIAN_POINT ( 'NONE',  ( 0.0000000000000000000, 0.0000000000000000000, 0.5000000000000000000 ) ) ;
#7 = CC_DESIGN_PERSON_AND_ORGANIZATION_ASSIGNMENT ( #98, #100, ( #97 ) ) ;
#8 = CARTESIAN_POINT ( 'NONE',  ( -19.05000000000000100, 0.0000000000000000000, 0.5000000000000000000 ) ) ;
#9 = PERSON_AND_ORGANIZATION_ROLE ( 'classification_officer' ) ;
#10 = PRODUCT_DEFINITION ( 'UNKNOWN', '', #150, #121 ) ;
#11 = FACE_OUTER_BOUND ( 'NONE', #3, .T. ) ;
#12 = CARTESIAN_POINT ( 'NONE',  ( 0.0000000000000000000, 0.0000000000000000000, -0.5000000000000000000 ) ) ;
#13 = APPLICATION_CONTEXT ( 'configuration controlled 3d designs of mechanical parts and assemblies' ) ;
#14 = FACE_OUTER_BOUND ( 'NONE', #139, .T. ) ;
#15 = AXIS2_PLACEMENT_3D ( 'NONE', #166, #86, #151 ) ;
#16 = MECHANICAL_CONTEXT ( 'NONE', #43, 'mechanical' ) ;
#17 = CARTESIAN_POINT ( 'NONE',  ( 0.0000000000000000000, 0.0000000000000000000, -0.5000000000000000000 ) ) ;
#18 = DATE_TIME_ROLE ( 'classification_date' ) ;
#19 = APPROVAL ( #133, 'UNSPECIFIED' ) ;
#20 = LOCAL_TIME ( 13, 14, 26.00000000000000000, #56 ) ;
#21 = CIRCLE ( 'NONE', #109, 19.05000000000000100 ) ;
#22 = MANIFOLD_SOLID_BREP ( 'Boss-Extrude1', #107 ) ;
#23 = CALENDAR_DATE ( 2018, 25, 7 ) ;
#24 = PERSON_AND_ORGANIZATION ( #140, #29 ) ;
#25 = ORIENTED_EDGE ( 'NONE', *, *, #120, .F. ) ;
#26 = EDGE_CURVE ( 'NONE', #99, #77, #164, .T. ) ;
#27 = ORIENTED_EDGE ( 'NONE', *, *, #26, .T. ) ;
#28 = CALENDAR_DATE ( 2018, 25, 7 ) ;
#29 = ORGANIZATION ( 'UNSPECIFIED', 'UNSPECIFIED', '' ) ;
#30 = DIRECTION ( 'NONE',  ( 1.000000000000000000, 0.0000000000000000000, 0.0000000000000000000 ) ) ;
#31 = AXIS2_PLACEMENT_3D ( 'NONE', #42, #126, #5 ) ;
#32 = ORIENTED_EDGE ( 'NONE', *, *, #160, .F. ) ;
#33 = CIRCLE ( 'NONE', #31, 19.05000000000000100 ) ;
#34 = ORIENTED_EDGE ( 'NONE', *, *, #45, .F. ) ;
#35 = ADVANCED_FACE ( 'NONE', ( #96 ), #89, .T. ) ;
#36 = AXIS2_PLACEMENT_3D ( 'NONE', #38, #102, #83 ) ;
#37 = COORDINATED_UNIVERSAL_TIME_OFFSET ( 5, 0, .BEHIND. ) ;
#38 = CARTESIAN_POINT ( 'NONE',  ( 0.0000000000000000000, 0.0000000000000000000, 0.5000000000000000000 ) ) ;
#39 = ORIENTED_EDGE ( 'NONE', *, *, #114, .T. ) ;
#40 = CC_DESIGN_APPROVAL ( #79, ( #10 ) ) ;
#41 = SHAPE_DEFINITION_REPRESENTATION ( #171, #108 ) ;
#42 = CARTESIAN_POINT ( 'NONE',  ( 0.0000000000000000000, 0.0000000000000000000, 0.5000000000000000000 ) ) ;
#43 = APPLICATION_CONTEXT ( 'configuration controlled 3d designs of mechanical parts and assemblies' ) ;
#44 = DIRECTION ( 'NONE',  ( -0.0000000000000000000, -0.0000000000000000000, -1.000000000000000000 ) ) ;
#45 = EDGE_CURVE ( 'NONE', #77, #73, #21, .T. ) ;
#46 = APPLICATION_PROTOCOL_DEFINITION ( 'international standard', 'config_control_design', 1994, #13 ) ;
#47 = AXIS2_PLACEMENT_3D ( 'NONE', #167, #132, #30 ) ;
#48 = SECURITY_CLASSIFICATION_LEVEL ( 'unclassified' ) ;
#49 = CC_DESIGN_PERSON_AND_ORGANIZATION_ASSIGNMENT ( #137, #134, ( #10 ) ) ;
#50 = CC_DESIGN_PERSON_AND_ORGANIZATION_ASSIGNMENT ( #128, #9, ( #54 ) ) ;
#51 = AXIS2_PLACEMENT_3D ( 'NONE', #101, #115, #87 ) ;
#52 = DATE_AND_TIME ( #23, #91 ) ;
#53 = AXIS2_PLACEMENT_3D ( 'NONE', #17, #72, #4 ) ;
#54 = SECURITY_CLASSIFICATION ( '', '', #48 ) ;
#55 = CARTESIAN_POINT ( 'NONE',  ( 19.05000000000000100, 2.332952152375708000E-015, -0.5000000000000000000 ) ) ;
#56 = COORDINATED_UNIVERSAL_TIME_OFFSET ( 5, 0, .BEHIND. ) ;
#57 = DIRECTION ( 'NONE',  ( 0.0000000000000000000, 0.0000000000000000000, 1.000000000000000000 ) ) ;
#58 = DIRECTION ( 'NONE',  ( -0.0000000000000000000, -0.0000000000000000000, -1.000000000000000000 ) ) ;
#59 = DIRECTION ( 'NONE',  ( -1.000000000000000000, 0.0000000000000000000, 0.0000000000000000000 ) ) ;
#60 = APPROVAL_STATUS ( 'not_yet_approved' ) ;
#61 = ADVANCED_FACE ( 'NONE', ( #117 ), #1, .T. ) ;
#62 = COORDINATED_UNIVERSAL_TIME_OFFSET ( 5, 0, .BEHIND. ) ;
#63 = ORIENTED_EDGE ( 'NONE', *, *, #160, .T. ) ;
#64 = COORDINATED_UNIVERSAL_TIME_OFFSET ( 5, 0, .BEHIND. ) ;
#65 = ORIENTED_EDGE ( 'NONE', *, *, #26, .F. ) ;
#66 = PRODUCT_RELATED_PRODUCT_CATEGORY ( 'detail', '', ( #97 ) ) ;
#67 = ORIENTED_EDGE ( 'NONE', *, *, #114, .F. ) ;
#68 = LOCAL_TIME ( 13, 14, 26.00000000000000000, #147 ) ;
#69 = CIRCLE ( 'NONE', #51, 19.05000000000000100 ) ;
#70 = APPLICATION_PROTOCOL_DEFINITION ( 'international standard', 'config_control_design', 1994, #43 ) ;
#71 = PLANE ( 'NONE',  #53 ) ;
#72 = DIRECTION ( 'NONE',  ( 0.0000000000000000000, 0.0000000000000000000, 1.000000000000000000 ) ) ;
#73 = VERTEX_POINT ( 'NONE', #80 ) ;
#74 = CARTESIAN_POINT ( 'NONE',  ( -19.05000000000000100, 0.0000000000000000000, 0.5000000000000000000 ) ) ;
#75 = PERSON_AND_ORGANIZATION ( #140, #29 ) ;
#76 = CYLINDRICAL_SURFACE ( 'NONE', #15, 19.05000000000000100 ) ;
#77 = VERTEX_POINT ( 'NONE', #55 ) ;
#78 = ORIENTED_EDGE ( 'NONE', *, *, #155, .F. ) ;
#79 = APPROVAL ( #129, 'UNSPECIFIED' ) ;
#80 = CARTESIAN_POINT ( 'NONE',  ( -19.05000000000000100, 0.0000000000000000000, -0.5000000000000000000 ) ) ;
#81 = PERSON_AND_ORGANIZATION ( #140, #29 ) ;
#82 =( NAMED_UNIT ( * ) PLANE_ANGLE_UNIT ( ) SI_UNIT ( $, .RADIAN. ) );
#83 = DIRECTION ( 'NONE',  ( 1.000000000000000000, 0.0000000000000000000, -0.0000000000000000000 ) ) ;
#84 = CIRCLE ( 'NONE', #47, 19.05000000000000100 ) ;
#85 = CC_DESIGN_APPROVAL ( #19, ( #150 ) ) ;
#86 = DIRECTION ( 'NONE',  ( -0.0000000000000000000, -0.0000000000000000000, -1.000000000000000000 ) ) ;
#87 = DIRECTION ( 'NONE',  ( 1.000000000000000000, 0.0000000000000000000, 0.0000000000000000000 ) ) ;
#88 = PERSON_AND_ORGANIZATION_ROLE ( 'design_supplier' ) ;
#89 = CYLINDRICAL_SURFACE ( 'NONE', #93, 19.05000000000000100 ) ;
#90 = PERSON_AND_ORGANIZATION_ROLE ( 'creator' ) ;
#91 = LOCAL_TIME ( 13, 14, 26.00000000000000000, #64 ) ;
#92 = VECTOR ( 'NONE', #44, 1000.000000000000000 ) ;
#93 = AXIS2_PLACEMENT_3D ( 'NONE', #6, #58, #59 ) ;
#94 = PERSON_AND_ORGANIZATION ( #140, #29 ) ;
#95 = CC_DESIGN_PERSON_AND_ORGANIZATION_ASSIGNMENT ( #81, #88, ( #150 ) ) ;
#96 = FACE_OUTER_BOUND ( 'NONE', #110, .T. ) ;
#97 = PRODUCT ( 'Web Model 39242_39242', 'Web Model 39242_39242', '', ( #16 ) ) ;
#98 = PERSON_AND_ORGANIZATION ( #140, #29 ) ;
#99 = VERTEX_POINT ( 'NONE', #165 ) ;
#100 = PERSON_AND_ORGANIZATION_ROLE ( 'design_owner' ) ;
#101 = CARTESIAN_POINT ( 'NONE',  ( 0.0000000000000000000, 0.0000000000000000000, 0.5000000000000000000 ) ) ;
#102 = DIRECTION ( 'NONE',  ( 0.0000000000000000000, 0.0000000000000000000, 1.000000000000000000 ) ) ;
#103 = EDGE_LOOP ( 'NONE', ( #161, #63 ) ) ;
#104 = UNCERTAINTY_MEASURE_WITH_UNIT (LENGTH_MEASURE( 1.000000000000000100E-005 ), #127, 'distance_accuracy_value', 'NONE');
#105 = APPROVAL_ROLE ( '' ) ;
#106 = CALENDAR_DATE ( 2018, 25, 7 ) ;
#107 = CLOSED_SHELL ( 'NONE', ( #35, #159, #61, #130 ) ) ;
#108 = ADVANCED_BREP_SHAPE_REPRESENTATION ( 'Web Model 39242_39242', ( #22, #172 ), #175 ) ;
#109 = AXIS2_PLACEMENT_3D ( 'NONE', #12, #57, #156 ) ;
#110 = EDGE_LOOP ( 'NONE', ( #32, #27, #173, #67 ) ) ;
#111 = CARTESIAN_POINT ( 'NONE',  ( 0.0000000000000000000, 0.0000000000000000000, 0.0000000000000000000 ) ) ;
#112 = APPROVAL_PERSON_ORGANIZATION ( #94, #79, #158 ) ;
#113 =( NAMED_UNIT ( * ) SI_UNIT ( $, .STERADIAN. ) SOLID_ANGLE_UNIT ( ) );
#114 = EDGE_CURVE ( 'NONE', #142, #73, #124, .T. ) ;
#115 = DIRECTION ( 'NONE',  ( 0.0000000000000000000, 0.0000000000000000000, 1.000000000000000000 ) ) ;
#116 = APPROVAL_DATE_TIME ( #170, #79 ) ;
#117 = FACE_OUTER_BOUND ( 'NONE', #103, .T. ) ;
#118 = APPROVAL_DATE_TIME ( #157, #19 ) ;
#119 = DATE_AND_TIME ( #135, #153 ) ;
#120 = EDGE_CURVE ( 'NONE', #142, #99, #69, .T. ) ;
#121 = DESIGN_CONTEXT ( 'detailed design', #13, 'design' ) ;
#122 = CC_DESIGN_APPROVAL ( #144, ( #54 ) ) ;
#123 = CC_DESIGN_PERSON_AND_ORGANIZATION_ASSIGNMENT ( #75, #90, ( #150 ) ) ;
#124 = LINE ( 'NONE', #74, #92 ) ;
#125 = CC_DESIGN_SECURITY_CLASSIFICATION ( #54, ( #150 ) ) ;
#126 = DIRECTION ( 'NONE',  ( 0.0000000000000000000, 0.0000000000000000000, 1.000000000000000000 ) ) ;
#127 =( LENGTH_UNIT ( ) NAMED_UNIT ( * ) SI_UNIT ( .MILLI., .METRE. ) );
#128 = PERSON_AND_ORGANIZATION ( #140, #29 ) ;
#129 = APPROVAL_STATUS ( 'not_yet_approved' ) ;
#130 = ADVANCED_FACE ( 'NONE', ( #14 ), #71, .F. ) ;
#131 = DIRECTION ( 'NONE',  ( -0.0000000000000000000, -0.0000000000000000000, -1.000000000000000000 ) ) ;
#132 = DIRECTION ( 'NONE',  ( 0.0000000000000000000, 0.0000000000000000000, 1.000000000000000000 ) ) ;
#133 = APPROVAL_STATUS ( 'not_yet_approved' ) ;
#134 = PERSON_AND_ORGANIZATION_ROLE ( 'creator' ) ;
#135 = CALENDAR_DATE ( 2018, 25, 7 ) ;
#136 = VECTOR ( 'NONE', #131, 1000.000000000000000 ) ;
#137 = PERSON_AND_ORGANIZATION ( #140, #29 ) ;
#138 = CALENDAR_DATE ( 2018, 25, 7 ) ;
#139 = EDGE_LOOP ( 'NONE', ( #78, #34 ) ) ;
#140 = PERSON ( 'UNSPECIFIED', 'UNSPECIFIED', 'UNSPECIFIED', ('UNSPECIFIED'), ('UNSPECIFIED'), ('UNSPECIFIED') ) ;
#141 = LOCAL_TIME ( 13, 14, 26.00000000000000000, #37 ) ;
#142 = VERTEX_POINT ( 'NONE', #8 ) ;
#143 = DIRECTION ( 'NONE',  ( 0.0000000000000000000, 0.0000000000000000000, 1.000000000000000000 ) ) ;
#144 = APPROVAL ( #60, 'UNSPECIFIED' ) ;
#145 = CC_DESIGN_DATE_AND_TIME_ASSIGNMENT ( #119, #148, ( #10 ) ) ;
#146 = CC_DESIGN_DATE_AND_TIME_ASSIGNMENT ( #52, #18, ( #54 ) ) ;
#147 = COORDINATED_UNIVERSAL_TIME_OFFSET ( 5, 0, .BEHIND. ) ;
#148 = DATE_TIME_ROLE ( 'creation_date' ) ;
#149 = APPROVAL_DATE_TIME ( #169, #144 ) ;
#150 = PRODUCT_DEFINITION_FORMATION_WITH_SPECIFIED_SOURCE ( 'ANY', '', #97, .NOT_KNOWN. ) ;
#151 = DIRECTION ( 'NONE',  ( -1.000000000000000000, 0.0000000000000000000, 0.0000000000000000000 ) ) ;
#152 = DIRECTION ( 'NONE',  ( 1.000000000000000000, 0.0000000000000000000, 0.0000000000000000000 ) ) ;
#153 = LOCAL_TIME ( 13, 14, 26.00000000000000000, #62 ) ;
#154 = CARTESIAN_POINT ( 'NONE',  ( 19.05000000000000100, 2.332952152375708000E-015, 0.5000000000000000000 ) ) ;
#155 = EDGE_CURVE ( 'NONE', #73, #77, #84, .T. ) ;
#156 = DIRECTION ( 'NONE',  ( 1.000000000000000000, 0.0000000000000000000, 0.0000000000000000000 ) ) ;
#157 = DATE_AND_TIME ( #138, #20 ) ;
#158 = APPROVAL_ROLE ( '' ) ;
#159 = ADVANCED_FACE ( 'NONE', ( #11 ), #76, .T. ) ;
#160 = EDGE_CURVE ( 'NONE', #99, #142, #33, .T. ) ;
#161 = ORIENTED_EDGE ( 'NONE', *, *, #120, .T. ) ;
#162 = APPROVAL_PERSON_ORGANIZATION ( #2, #144, #168 ) ;
#163 = APPROVAL_PERSON_ORGANIZATION ( #24, #19, #105 ) ;
#164 = LINE ( 'NONE', #154, #136 ) ;
#165 = CARTESIAN_POINT ( 'NONE',  ( 19.05000000000000100, 2.332952152375708000E-015, 0.5000000000000000000 ) ) ;
#166 = CARTESIAN_POINT ( 'NONE',  ( 0.0000000000000000000, 0.0000000000000000000, 0.5000000000000000000 ) ) ;
#167 = CARTESIAN_POINT ( 'NONE',  ( 0.0000000000000000000, 0.0000000000000000000, -0.5000000000000000000 ) ) ;
#168 = APPROVAL_ROLE ( '' ) ;
#169 = DATE_AND_TIME ( #28, #68 ) ;
#170 = DATE_AND_TIME ( #106, #141 ) ;
#171 = PRODUCT_DEFINITION_SHAPE ( 'NONE', 'NONE',  #10 ) ;
#172 = AXIS2_PLACEMENT_3D ( 'NONE', #111, #143, #152 ) ;
#173 = ORIENTED_EDGE ( 'NONE', *, *, #45, .T. ) ;
#174 = ORIENTED_EDGE ( 'NONE', *, *, #155, .T. ) ;
#175 =( GEOMETRIC_REPRESENTATION_CONTEXT ( 3 ) GLOBAL_UNCERTAINTY_ASSIGNED_CONTEXT ( ( #104 ) ) GLOBAL_UNIT_ASSIGNED_CONTEXT ( ( #127, #82, #113 ) ) REPRESENTATION_CONTEXT ( 'NONE', 'WORKASPACE' ) );
ENDSEC;
END-ISO-10303-21;
