ISO-10303-21;
HEADER;
FILE_DESCRIPTION (( 'STEP AP203' ),
    '1' );
FILE_NAME ('Web Model 39391_39419.step',
    '2018-10-05T20:40:28',
    ( '' ),
    ( '' ),
    'SwSTEP 2.0',
    'SolidWorks 2016',
    '' );
FILE_SCHEMA (( 'CONFIG_CONTROL_DESIGN' ));
ENDSEC;

DATA;
#1 = DIRECTION ( 'NONE',  ( -1.000000000000000000, 0.0000000000000000000, 0.0000000000000000000 ) ) ;
#2 = CYLINDRICAL_SURFACE ( 'NONE', #134, 6.349999999999999600 ) ;
#3 = AXIS2_PLACEMENT_3D ( 'NONE', #113, #112, #32 ) ;
#4 =( NAMED_UNIT ( * ) SI_UNIT ( $, .STERADIAN. ) SOLID_ANGLE_UNIT ( ) );
#5 = ORIENTED_EDGE ( 'NONE', *, *, #131, .F. ) ;
#6 =( GEOMETRIC_REPRESENTATION_CONTEXT ( 3 ) GLOBAL_UNCERTAINTY_ASSIGNED_CONTEXT ( ( #173 ) ) GLOBAL_UNIT_ASSIGNED_CONTEXT ( ( #168, #88, #4 ) ) REPRESENTATION_CONTEXT ( 'NONE', 'WORKASPACE' ) );
#7 = DIRECTION ( 'NONE',  ( 1.000000000000000000, 0.0000000000000000000, 0.0000000000000000000 ) ) ;
#8 = PERSON_AND_ORGANIZATION_ROLE ( 'creator' ) ;
#9 = ORIENTED_EDGE ( 'NONE', *, *, #174, .T. ) ;
#10 = CALENDAR_DATE ( 2018, 5, 10 ) ;
#11 = CC_DESIGN_PERSON_AND_ORGANIZATION_ASSIGNMENT ( #40, #8, ( #55 ) ) ;
#12 = APPROVAL_DATE_TIME ( #42, #20 ) ;
#13 = EDGE_LOOP ( 'NONE', ( #52, #9 ) ) ;
#14 = DATE_AND_TIME ( #53, #110 ) ;
#15 = PERSON_AND_ORGANIZATION ( #151, #147 ) ;
#16 = CARTESIAN_POINT ( 'NONE',  ( 0.0000000000000000000, 0.0000000000000000000, -0.5000000000000000000 ) ) ;
#17 = COORDINATED_UNIVERSAL_TIME_OFFSET ( 5, 0, .BEHIND. ) ;
#18 = DIRECTION ( 'NONE',  ( -0.0000000000000000000, -0.0000000000000000000, -1.000000000000000000 ) ) ;
#19 = DIRECTION ( 'NONE',  ( -0.0000000000000000000, -0.0000000000000000000, -1.000000000000000000 ) ) ;
#20 = APPROVAL ( #141, 'UNSPECIFIED' ) ;
#21 = CARTESIAN_POINT ( 'NONE',  ( 0.0000000000000000000, 0.0000000000000000000, 0.5000000000000000000 ) ) ;
#22 = PERSON_AND_ORGANIZATION_ROLE ( 'design_owner' ) ;
#23 = FACE_OUTER_BOUND ( 'NONE', #84, .T. ) ;
#24 = APPLICATION_CONTEXT ( 'configuration controlled 3d designs of mechanical parts and assemblies' ) ;
#25 = APPROVAL_ROLE ( '' ) ;
#26 = CLOSED_SHELL ( 'NONE', ( #92, #87, #47, #157 ) ) ;
#27 = CC_DESIGN_PERSON_AND_ORGANIZATION_ASSIGNMENT ( #57, #117, ( #133 ) ) ;
#28 = MANIFOLD_SOLID_BREP ( 'Boss-Extrude1', #26 ) ;
#29 = COORDINATED_UNIVERSAL_TIME_OFFSET ( 5, 0, .BEHIND. ) ;
#30 = DIRECTION ( 'NONE',  ( 1.000000000000000000, 0.0000000000000000000, 0.0000000000000000000 ) ) ;
#31 = DIRECTION ( 'NONE',  ( -0.0000000000000000000, -0.0000000000000000000, -1.000000000000000000 ) ) ;
#32 = DIRECTION ( 'NONE',  ( 1.000000000000000000, 0.0000000000000000000, 0.0000000000000000000 ) ) ;
#33 = ORIENTED_EDGE ( 'NONE', *, *, #118, .F. ) ;
#34 = CARTESIAN_POINT ( 'NONE',  ( 0.0000000000000000000, 0.0000000000000000000, 0.5000000000000000000 ) ) ;
#35 = APPLICATION_PROTOCOL_DEFINITION ( 'international standard', 'config_control_design', 1994, #75 ) ;
#36 = APPROVAL_ROLE ( '' ) ;
#37 = ORIENTED_EDGE ( 'NONE', *, *, #123, .T. ) ;
#38 = APPROVAL_PERSON_ORGANIZATION ( #41, #111, #64 ) ;
#39 = AXIS2_PLACEMENT_3D ( 'NONE', #16, #136, #30 ) ;
#40 = PERSON_AND_ORGANIZATION ( #151, #147 ) ;
#41 = PERSON_AND_ORGANIZATION ( #151, #147 ) ;
#42 = DATE_AND_TIME ( #46, #124 ) ;
#43 = CARTESIAN_POINT ( 'NONE',  ( -6.349999999999999600, 0.0000000000000000000, -0.5000000000000000000 ) ) ;
#44 = CARTESIAN_POINT ( 'NONE',  ( 0.0000000000000000000, 0.0000000000000000000, -0.5000000000000000000 ) ) ;
#45 = DIRECTION ( 'NONE',  ( 0.0000000000000000000, 0.0000000000000000000, 1.000000000000000000 ) ) ;
#46 = CALENDAR_DATE ( 2018, 5, 10 ) ;
#47 = ADVANCED_FACE ( 'NONE', ( #74 ), #86, .T. ) ;
#48 = LINE ( 'NONE', #153, #115 ) ;
#49 = SHAPE_DEFINITION_REPRESENTATION ( #148, #160 ) ;
#50 = DESIGN_CONTEXT ( 'detailed design', #24, 'design' ) ;
#51 = AXIS2_PLACEMENT_3D ( 'NONE', #165, #128, #99 ) ;
#52 = ORIENTED_EDGE ( 'NONE', *, *, #118, .T. ) ;
#53 = CALENDAR_DATE ( 2018, 5, 10 ) ;
#54 = DATE_AND_TIME ( #77, #126 ) ;
#55 = PRODUCT_DEFINITION ( 'UNKNOWN', '', #133, #50 ) ;
#56 = FACE_OUTER_BOUND ( 'NONE', #70, .T. ) ;
#57 = PERSON_AND_ORGANIZATION ( #151, #147 ) ;
#58 = CIRCLE ( 'NONE', #39, 6.349999999999999600 ) ;
#59 = APPROVAL_PERSON_ORGANIZATION ( #139, #127, #36 ) ;
#60 = CC_DESIGN_PERSON_AND_ORGANIZATION_ASSIGNMENT ( #63, #121, ( #146 ) ) ;
#61 = CARTESIAN_POINT ( 'NONE',  ( 6.349999999999999600, 7.776507174585692200E-016, 0.5000000000000000000 ) ) ;
#62 = DIRECTION ( 'NONE',  ( 1.000000000000000000, 0.0000000000000000000, 0.0000000000000000000 ) ) ;
#63 = PERSON_AND_ORGANIZATION ( #151, #147 ) ;
#64 = APPROVAL_ROLE ( '' ) ;
#65 = ORIENTED_EDGE ( 'NONE', *, *, #97, .T. ) ;
#66 = CC_DESIGN_DATE_AND_TIME_ASSIGNMENT ( #54, #91, ( #55 ) ) ;
#67 = VECTOR ( 'NONE', #31, 1000.000000000000000 ) ;
#68 = DATE_AND_TIME ( #161, #159 ) ;
#69 = DIRECTION ( 'NONE',  ( 0.0000000000000000000, 0.0000000000000000000, 1.000000000000000000 ) ) ;
#70 = EDGE_LOOP ( 'NONE', ( #120, #33, #37, #130 ) ) ;
#71 = DIRECTION ( 'NONE',  ( 0.0000000000000000000, 0.0000000000000000000, 1.000000000000000000 ) ) ;
#72 = CC_DESIGN_DATE_AND_TIME_ASSIGNMENT ( #14, #103, ( #146 ) ) ;
#73 = CARTESIAN_POINT ( 'NONE',  ( 0.0000000000000000000, 0.0000000000000000000, 0.0000000000000000000 ) ) ;
#74 = FACE_OUTER_BOUND ( 'NONE', #13, .T. ) ;
#75 = APPLICATION_CONTEXT ( 'configuration controlled 3d designs of mechanical parts and assemblies' ) ;
#76 = PERSON_AND_ORGANIZATION_ROLE ( 'design_supplier' ) ;
#77 = CALENDAR_DATE ( 2018, 5, 10 ) ;
#78 = COORDINATED_UNIVERSAL_TIME_OFFSET ( 5, 0, .BEHIND. ) ;
#79 = VERTEX_POINT ( 'NONE', #114 ) ;
#80 = PERSON_AND_ORGANIZATION ( #151, #147 ) ;
#81 = CC_DESIGN_APPROVAL ( #127, ( #146 ) ) ;
#82 = LINE ( 'NONE', #166, #67 ) ;
#83 = CARTESIAN_POINT ( 'NONE',  ( 0.0000000000000000000, 0.0000000000000000000, 0.5000000000000000000 ) ) ;
#84 = EDGE_LOOP ( 'NONE', ( #163, #65, #175, #106 ) ) ;
#85 = DIRECTION ( 'NONE',  ( 1.000000000000000000, 0.0000000000000000000, -0.0000000000000000000 ) ) ;
#86 = PLANE ( 'NONE',  #51 ) ;
#87 = ADVANCED_FACE ( 'NONE', ( #56 ), #142, .T. ) ;
#88 =( NAMED_UNIT ( * ) PLANE_ANGLE_UNIT ( ) SI_UNIT ( $, .RADIAN. ) );
#89 = VERTEX_POINT ( 'NONE', #107 ) ;
#90 = APPROVAL_STATUS ( 'not_yet_approved' ) ;
#91 = DATE_TIME_ROLE ( 'creation_date' ) ;
#92 = ADVANCED_FACE ( 'NONE', ( #23 ), #2, .T. ) ;
#93 = FACE_OUTER_BOUND ( 'NONE', #104, .T. ) ;
#94 = CC_DESIGN_SECURITY_CLASSIFICATION ( #146, ( #133 ) ) ;
#95 = AXIS2_PLACEMENT_3D ( 'NONE', #73, #71, #7 ) ;
#96 = APPROVAL_DATE_TIME ( #144, #111 ) ;
#97 = EDGE_CURVE ( 'NONE', #171, #89, #48, .T. ) ;
#98 = DIRECTION ( 'NONE',  ( -1.000000000000000000, 0.0000000000000000000, 0.0000000000000000000 ) ) ;
#99 = DIRECTION ( 'NONE',  ( 1.000000000000000000, 0.0000000000000000000, -0.0000000000000000000 ) ) ;
#100 = EDGE_CURVE ( 'NONE', #167, #89, #58, .T. ) ;
#101 = DIRECTION ( 'NONE',  ( -0.0000000000000000000, -0.0000000000000000000, -1.000000000000000000 ) ) ;
#102 = CIRCLE ( 'NONE', #164, 6.349999999999999600 ) ;
#103 = DATE_TIME_ROLE ( 'classification_date' ) ;
#104 = EDGE_LOOP ( 'NONE', ( #143, #5 ) ) ;
#105 = CC_DESIGN_APPROVAL ( #111, ( #133 ) ) ;
#106 = ORIENTED_EDGE ( 'NONE', *, *, #123, .F. ) ;
#107 = CARTESIAN_POINT ( 'NONE',  ( 6.349999999999999600, 7.776507174585692200E-016, -0.5000000000000000000 ) ) ;
#108 = DIRECTION ( 'NONE',  ( 1.000000000000000000, 0.0000000000000000000, 0.0000000000000000000 ) ) ;
#109 = APPROVAL_PERSON_ORGANIZATION ( #15, #20, #25 ) ;
#110 = LOCAL_TIME ( 16, 40, 28.00000000000000000, #17 ) ;
#111 = APPROVAL ( #119, 'UNSPECIFIED' ) ;
#112 = DIRECTION ( 'NONE',  ( 0.0000000000000000000, 0.0000000000000000000, 1.000000000000000000 ) ) ;
#113 = CARTESIAN_POINT ( 'NONE',  ( 0.0000000000000000000, 0.0000000000000000000, -0.5000000000000000000 ) ) ;
#114 = CARTESIAN_POINT ( 'NONE',  ( -6.349999999999999600, 0.0000000000000000000, 0.5000000000000000000 ) ) ;
#115 = VECTOR ( 'NONE', #19, 1000.000000000000000 ) ;
#116 = APPLICATION_PROTOCOL_DEFINITION ( 'international standard', 'config_control_design', 1994, #24 ) ;
#117 = PERSON_AND_ORGANIZATION_ROLE ( 'creator' ) ;
#118 = EDGE_CURVE ( 'NONE', #79, #171, #137, .T. ) ;
#119 = APPROVAL_STATUS ( 'not_yet_approved' ) ;
#120 = ORIENTED_EDGE ( 'NONE', *, *, #97, .F. ) ;
#121 = PERSON_AND_ORGANIZATION_ROLE ( 'classification_officer' ) ;
#122 = PERSON_AND_ORGANIZATION ( #151, #147 ) ;
#123 = EDGE_CURVE ( 'NONE', #79, #167, #82, .T. ) ;
#124 = LOCAL_TIME ( 16, 40, 28.00000000000000000, #155 ) ;
#125 = COORDINATED_UNIVERSAL_TIME_OFFSET ( 5, 0, .BEHIND. ) ;
#126 = LOCAL_TIME ( 16, 40, 28.00000000000000000, #78 ) ;
#127 = APPROVAL ( #90, 'UNSPECIFIED' ) ;
#128 = DIRECTION ( 'NONE',  ( 0.0000000000000000000, 0.0000000000000000000, 1.000000000000000000 ) ) ;
#129 = DIRECTION ( 'NONE',  ( 0.0000000000000000000, 0.0000000000000000000, 1.000000000000000000 ) ) ;
#130 = ORIENTED_EDGE ( 'NONE', *, *, #100, .T. ) ;
#131 = EDGE_CURVE ( 'NONE', #89, #167, #132, .T. ) ;
#132 = CIRCLE ( 'NONE', #3, 6.349999999999999600 ) ;
#133 = PRODUCT_DEFINITION_FORMATION_WITH_SPECIFIED_SOURCE ( 'ANY', '', #154, .NOT_KNOWN. ) ;
#134 = AXIS2_PLACEMENT_3D ( 'NONE', #150, #101, #98 ) ;
#135 = LOCAL_TIME ( 16, 40, 28.00000000000000000, #29 ) ;
#136 = DIRECTION ( 'NONE',  ( 0.0000000000000000000, 0.0000000000000000000, 1.000000000000000000 ) ) ;
#137 = CIRCLE ( 'NONE', #145, 6.349999999999999600 ) ;
#138 = PLANE ( 'NONE',  #162 ) ;
#139 = PERSON_AND_ORGANIZATION ( #151, #147 ) ;
#140 = CC_DESIGN_PERSON_AND_ORGANIZATION_ASSIGNMENT ( #122, #22, ( #154 ) ) ;
#141 = APPROVAL_STATUS ( 'not_yet_approved' ) ;
#142 = CYLINDRICAL_SURFACE ( 'NONE', #172, 6.349999999999999600 ) ;
#143 = ORIENTED_EDGE ( 'NONE', *, *, #100, .F. ) ;
#144 = DATE_AND_TIME ( #10, #135 ) ;
#145 = AXIS2_PLACEMENT_3D ( 'NONE', #21, #69, #108 ) ;
#146 = SECURITY_CLASSIFICATION ( '', '', #170 ) ;
#147 = ORGANIZATION ( 'UNSPECIFIED', 'UNSPECIFIED', '' ) ;
#148 = PRODUCT_DEFINITION_SHAPE ( 'NONE', 'NONE',  #55 ) ;
#149 = PRODUCT_RELATED_PRODUCT_CATEGORY ( 'detail', '', ( #154 ) ) ;
#150 = CARTESIAN_POINT ( 'NONE',  ( 0.0000000000000000000, 0.0000000000000000000, 0.5000000000000000000 ) ) ;
#151 = PERSON ( 'UNSPECIFIED', 'UNSPECIFIED', 'UNSPECIFIED', ('UNSPECIFIED'), ('UNSPECIFIED'), ('UNSPECIFIED') ) ;
#152 = CC_DESIGN_APPROVAL ( #20, ( #55 ) ) ;
#153 = CARTESIAN_POINT ( 'NONE',  ( 6.349999999999999600, 7.776507174585692200E-016, 0.5000000000000000000 ) ) ;
#154 = PRODUCT ( 'Web Model 39391_39419', 'Web Model 39391_39419', '', ( #169 ) ) ;
#155 = COORDINATED_UNIVERSAL_TIME_OFFSET ( 5, 0, .BEHIND. ) ;
#156 = APPROVAL_DATE_TIME ( #68, #127 ) ;
#157 = ADVANCED_FACE ( 'NONE', ( #93 ), #138, .F. ) ;
#158 = CC_DESIGN_PERSON_AND_ORGANIZATION_ASSIGNMENT ( #80, #76, ( #133 ) ) ;
#159 = LOCAL_TIME ( 16, 40, 28.00000000000000000, #125 ) ;
#160 = ADVANCED_BREP_SHAPE_REPRESENTATION ( 'Web Model 39391_39419', ( #28, #95 ), #6 ) ;
#161 = CALENDAR_DATE ( 2018, 5, 10 ) ;
#162 = AXIS2_PLACEMENT_3D ( 'NONE', #44, #45, #85 ) ;
#163 = ORIENTED_EDGE ( 'NONE', *, *, #174, .F. ) ;
#164 = AXIS2_PLACEMENT_3D ( 'NONE', #34, #129, #62 ) ;
#165 = CARTESIAN_POINT ( 'NONE',  ( 0.0000000000000000000, 0.0000000000000000000, 0.5000000000000000000 ) ) ;
#166 = CARTESIAN_POINT ( 'NONE',  ( -6.349999999999999600, 0.0000000000000000000, 0.5000000000000000000 ) ) ;
#167 = VERTEX_POINT ( 'NONE', #43 ) ;
#168 =( LENGTH_UNIT ( ) NAMED_UNIT ( * ) SI_UNIT ( .MILLI., .METRE. ) );
#169 = MECHANICAL_CONTEXT ( 'NONE', #75, 'mechanical' ) ;
#170 = SECURITY_CLASSIFICATION_LEVEL ( 'unclassified' ) ;
#171 = VERTEX_POINT ( 'NONE', #61 ) ;
#172 = AXIS2_PLACEMENT_3D ( 'NONE', #83, #18, #1 ) ;
#173 = UNCERTAINTY_MEASURE_WITH_UNIT (LENGTH_MEASURE( 1.000000000000000100E-005 ), #168, 'distance_accuracy_value', 'NONE');
#174 = EDGE_CURVE ( 'NONE', #171, #79, #102, .T. ) ;
#175 = ORIENTED_EDGE ( 'NONE', *, *, #131, .T. ) ;
ENDSEC;
END-ISO-10303-21;
