ISO-10303-21;
HEADER;
FILE_DESCRIPTION (( 'STEP AP203' ),
    '1' );
FILE_NAME ('Web Model 13396_13399.step',
    '2021-06-30T20:28:54',
    ( '' ),
    ( '' ),
    'SwSTEP 2.0',
    'SolidWorks 2018',
    '' );
FILE_SCHEMA (( 'CONFIG_CONTROL_DESIGN' ));
ENDSEC;

DATA;
#1 = CC_DESIGN_PERSON_AND_ORGANIZATION_ASSIGNMENT ( #209, #128, ( #179 ) ) ;
#2 = APPROVAL_DATE_TIME ( #131, #24 ) ;
#3 = VECTOR ( 'NONE', #70, 1000.000000000000000 ) ;
#4 = VERTEX_POINT ( 'NONE', #5 ) ;
#5 = CARTESIAN_POINT ( 'NONE',  ( 6.249999999999998224, -6.249999999999998224, 0.000000000000000000 ) ) ;
#6 = VECTOR ( 'NONE', #26, 1000.000000000000000 ) ;
#7 = CARTESIAN_POINT ( 'NONE',  ( 0.000000000000000000, 0.000000000000000000, 1.000000000000000000 ) ) ;
#8 = DIRECTION ( 'NONE',  ( -0.000000000000000000, 0.000000000000000000, 1.000000000000000000 ) ) ;
#9 =( NAMED_UNIT ( * ) SI_UNIT ( $, .STERADIAN. ) SOLID_ANGLE_UNIT ( ) );
#10 = CC_DESIGN_PERSON_AND_ORGANIZATION_ASSIGNMENT ( #201, #67, ( #179 ) ) ;
#11 = CARTESIAN_POINT ( 'NONE',  ( -6.250000000000001776, -6.249999999999998224, 1.000000000000000000 ) ) ;
#12 = DIRECTION ( 'NONE',  ( 0.000000000000000000, 0.000000000000000000, 1.000000000000000000 ) ) ;
#13 = CARTESIAN_POINT ( 'NONE',  ( -6.250000000000003553, 6.250000000000001776, 1.000000000000000000 ) ) ;
#14 = PERSON_AND_ORGANIZATION ( #144, #23 ) ;
#15 = VECTOR ( 'NONE', #237, 1000.000000000000000 ) ;
#16 = APPROVAL_STATUS ( 'not_yet_approved' ) ;
#17 = ADVANCED_FACE ( 'NONE', ( #106 ), #101, .F. ) ;
#18 = AXIS2_PLACEMENT_3D ( 'NONE', #212, #28, #123 ) ;
#19 = FACE_OUTER_BOUND ( 'NONE', #132, .T. ) ;
#20 = ORIENTED_EDGE ( 'NONE', *, *, #42, .F. ) ;
#21 = VECTOR ( 'NONE', #99, 1000.000000000000000 ) ;
#22 = VERTEX_POINT ( 'NONE', #84 ) ;
#23 = ORGANIZATION ( 'UNSPECIFIED', 'UNSPECIFIED', '' ) ;
#24 = APPROVAL ( #36, 'UNSPECIFIED' ) ;
#25 = CALENDAR_DATE ( 2021, 30, 6 ) ;
#26 = DIRECTION ( 'NONE',  ( 1.387778780781445676E-16, -1.000000000000000000, 0.000000000000000000 ) ) ;
#27 = ORIENTED_EDGE ( 'NONE', *, *, #141, .F. ) ;
#28 = DIRECTION ( 'NONE',  ( -0.000000000000000000, 0.000000000000000000, 1.000000000000000000 ) ) ;
#29 = EDGE_CURVE ( 'NONE', #46, #22, #93, .T. ) ;
#30 = PLANE ( 'NONE',  #229 ) ;
#31 = APPROVAL_PERSON_ORGANIZATION ( #40, #137, #233 ) ;
#32 = VECTOR ( 'NONE', #108, 1000.000000000000000 ) ;
#33 = CARTESIAN_POINT ( 'NONE',  ( 6.249999999999998224, -6.249999999999998224, 1.000000000000000000 ) ) ;
#34 = DIRECTION ( 'NONE',  ( 0.000000000000000000, -0.000000000000000000, 1.000000000000000000 ) ) ;
#35 = DIRECTION ( 'NONE',  ( -1.000000000000000000, -1.387778780781445676E-16, 0.000000000000000000 ) ) ;
#36 = APPROVAL_STATUS ( 'not_yet_approved' ) ;
#37 = PERSON_AND_ORGANIZATION ( #144, #23 ) ;
#38 = FACE_OUTER_BOUND ( 'NONE', #122, .T. ) ;
#39 = SECURITY_CLASSIFICATION ( '', '', #90 ) ;
#40 = PERSON_AND_ORGANIZATION ( #144, #23 ) ;
#41 = VECTOR ( 'NONE', #98, 1000.000000000000000 ) ;
#42 = EDGE_CURVE ( 'NONE', #22, #176, #167, .T. ) ;
#43 = DIRECTION ( 'NONE',  ( -1.000000000000000000, -0.000000000000000000, -0.000000000000000000 ) ) ;
#44 =( GEOMETRIC_REPRESENTATION_CONTEXT ( 3 ) GLOBAL_UNCERTAINTY_ASSIGNED_CONTEXT ( ( #77 ) ) GLOBAL_UNIT_ASSIGNED_CONTEXT ( ( #51, #104, #9 ) ) REPRESENTATION_CONTEXT ( 'NONE', 'WORKASPACE' ) );
#45 = COORDINATED_UNIVERSAL_TIME_OFFSET ( 5, 0, .BEHIND. ) ;
#46 = VERTEX_POINT ( 'NONE', #148 ) ;
#47 = DIRECTION ( 'NONE',  ( -1.387778780781445676E-16, 1.000000000000000000, 0.000000000000000000 ) ) ;
#48 = CC_DESIGN_PERSON_AND_ORGANIZATION_ASSIGNMENT ( #76, #94, ( #39 ) ) ;
#49 = PLANE ( 'NONE',  #235 ) ;
#50 = LOCAL_TIME ( 16, 28, 54.00000000000000000, #45 ) ;
#51 =( LENGTH_UNIT ( ) NAMED_UNIT ( * ) SI_UNIT ( .MILLI., .METRE. ) );
#52 = DIRECTION ( 'NONE',  ( -1.387778780781445676E-16, 1.000000000000000000, -0.000000000000000000 ) ) ;
#53 = DIRECTION ( 'NONE',  ( 0.000000000000000000, 1.000000000000000000, 0.000000000000000000 ) ) ;
#54 = LINE ( 'NONE', #217, #3 ) ;
#55 = ADVANCED_FACE ( 'NONE', ( #56 ), #195, .T. ) ;
#56 = FACE_OUTER_BOUND ( 'NONE', #225, .T. ) ;
#57 = ORIENTED_EDGE ( 'NONE', *, *, #29, .T. ) ;
#58 = CC_DESIGN_DATE_AND_TIME_ASSIGNMENT ( #207, #169, ( #39 ) ) ;
#59 = CARTESIAN_POINT ( 'NONE',  ( -6.250000000000001776, -6.249999999999998224, 1.000000000000000000 ) ) ;
#60 = LINE ( 'NONE', #92, #15 ) ;
#61 = ORIENTED_EDGE ( 'NONE', *, *, #184, .F. ) ;
#62 = CARTESIAN_POINT ( 'NONE',  ( -6.250000000000003553, 6.250000000000001776, 0.000000000000000000 ) ) ;
#63 = DIRECTION ( 'NONE',  ( 1.000000000000000000, 1.387778780781445676E-16, -0.000000000000000000 ) ) ;
#64 = DIRECTION ( 'NONE',  ( -1.387778780781445676E-16, 1.000000000000000000, -0.000000000000000000 ) ) ;
#65 = LINE ( 'NONE', #147, #21 ) ;
#66 = ORIENTED_EDGE ( 'NONE', *, *, #170, .F. ) ;
#67 = PERSON_AND_ORGANIZATION_ROLE ( 'design_supplier' ) ;
#68 = DIRECTION ( 'NONE',  ( 1.000000000000000000, 0.000000000000000000, 0.000000000000000000 ) ) ;
#69 = EDGE_CURVE ( 'NONE', #178, #204, #186, .T. ) ;
#70 = DIRECTION ( 'NONE',  ( -0.000000000000000000, -0.000000000000000000, -1.000000000000000000 ) ) ;
#71 = ORIENTED_EDGE ( 'NONE', *, *, #194, .F. ) ;
#72 = APPROVAL_ROLE ( '' ) ;
#73 = ORIENTED_EDGE ( 'NONE', *, *, #29, .F. ) ;
#74 = LINE ( 'NONE', #126, #149 ) ;
#75 = ORIENTED_EDGE ( 'NONE', *, *, #175, .F. ) ;
#76 = PERSON_AND_ORGANIZATION ( #144, #23 ) ;
#77 = UNCERTAINTY_MEASURE_WITH_UNIT (LENGTH_MEASURE( 1.000000000000000082E-05 ), #51, 'distance_accuracy_value', 'NONE');
#78 = LOCAL_TIME ( 16, 28, 54.00000000000000000, #177 ) ;
#79 = AXIS2_PLACEMENT_3D ( 'NONE', #11, #53, #34 ) ;
#80 = ORIENTED_EDGE ( 'NONE', *, *, #109, .T. ) ;
#81 = ORIENTED_EDGE ( 'NONE', *, *, #184, .T. ) ;
#82 = DATE_AND_TIME ( #25, #139 ) ;
#83 = DIRECTION ( 'NONE',  ( 1.000000000000000000, 0.000000000000000000, 0.000000000000000000 ) ) ;
#84 = CARTESIAN_POINT ( 'NONE',  ( -6.250000000000001776, -6.249999999999998224, 1.000000000000000000 ) ) ;
#85 = CARTESIAN_POINT ( 'NONE',  ( -6.250000000000003553, 6.250000000000001776, 1.000000000000000000 ) ) ;
#86 = VECTOR ( 'NONE', #230, 1000.000000000000000 ) ;
#87 = DIRECTION ( 'NONE',  ( 0.000000000000000000, -1.000000000000000000, 0.000000000000000000 ) ) ;
#88 = APPLICATION_PROTOCOL_DEFINITION ( 'international standard', 'config_control_design', 1994, #236 ) ;
#89 = EDGE_CURVE ( 'NONE', #219, #178, #65, .T. ) ;
#90 = SECURITY_CLASSIFICATION_LEVEL ( 'unclassified' ) ;
#91 = APPROVAL_PERSON_ORGANIZATION ( #152, #115, #72 ) ;
#92 = CARTESIAN_POINT ( 'NONE',  ( -6.250000000000001776, -6.249999999999998224, 0.000000000000000000 ) ) ;
#93 = LINE ( 'NONE', #85, #41 ) ;
#94 = PERSON_AND_ORGANIZATION_ROLE ( 'classification_officer' ) ;
#95 = AXIS2_PLACEMENT_3D ( 'NONE', #181, #12, #68 ) ;
#96 = CC_DESIGN_PERSON_AND_ORGANIZATION_ASSIGNMENT ( #192, #197, ( #200 ) ) ;
#97 = EDGE_LOOP ( 'NONE', ( #161, #66, #20, #168 ) ) ;
#98 = DIRECTION ( 'NONE',  ( 1.387778780781445676E-16, -1.000000000000000000, 0.000000000000000000 ) ) ;
#99 = DIRECTION ( 'NONE',  ( -1.000000000000000000, -0.000000000000000000, -0.000000000000000000 ) ) ;
#100 = CALENDAR_DATE ( 2021, 30, 6 ) ;
#101 = PLANE ( 'NONE',  #18 ) ;
#102 = LINE ( 'NONE', #213, #156 ) ;
#103 = PRODUCT_DEFINITION ( 'UNKNOWN', '', #179, #138 ) ;
#104 =( NAMED_UNIT ( * ) PLANE_ANGLE_UNIT ( ) SI_UNIT ( $, .RADIAN. ) );
#105 = APPROVAL_STATUS ( 'not_yet_approved' ) ;
#106 = FACE_OUTER_BOUND ( 'NONE', #223, .T. ) ;
#107 = MECHANICAL_CONTEXT ( 'NONE', #196, 'mechanical' ) ;
#108 = DIRECTION ( 'NONE',  ( -0.000000000000000000, -0.000000000000000000, -1.000000000000000000 ) ) ;
#109 = EDGE_CURVE ( 'NONE', #46, #178, #143, .T. ) ;
#110 = CARTESIAN_POINT ( 'NONE',  ( 6.249999999999996447, 6.250000000000001776, 1.000000000000000000 ) ) ;
#111 = ADVANCED_FACE ( 'NONE', ( #38 ), #30, .F. ) ;
#112 = LOCAL_TIME ( 16, 28, 54.00000000000000000, #135 ) ;
#113 = ORIENTED_EDGE ( 'NONE', *, *, #221, .T. ) ;
#114 = ORIENTED_EDGE ( 'NONE', *, *, #121, .F. ) ;
#115 = APPROVAL ( #16, 'UNSPECIFIED' ) ;
#116 = PRODUCT_DEFINITION_SHAPE ( 'NONE', 'NONE',  #103 ) ;
#117 = VECTOR ( 'NONE', #43, 1000.000000000000000 ) ;
#118 = ORIENTED_EDGE ( 'NONE', *, *, #89, .F. ) ;
#119 = CC_DESIGN_DATE_AND_TIME_ASSIGNMENT ( #185, #214, ( #103 ) ) ;
#120 = ORIENTED_EDGE ( 'NONE', *, *, #69, .T. ) ;
#121 = EDGE_CURVE ( 'NONE', #204, #4, #60, .T. ) ;
#122 = EDGE_LOOP ( 'NONE', ( #120, #75, #73, #80 ) ) ;
#123 = DIRECTION ( 'NONE',  ( 1.000000000000000000, 0.000000000000000000, 0.000000000000000000 ) ) ;
#124 = CARTESIAN_POINT ( 'NONE',  ( -6.250000000000003553, 6.250000000000001776, 1.000000000000000000 ) ) ;
#125 = CALENDAR_DATE ( 2021, 30, 6 ) ;
#126 = CARTESIAN_POINT ( 'NONE',  ( 6.249999999999996447, 6.250000000000001776, 0.000000000000000000 ) ) ;
#127 = ORIENTED_EDGE ( 'NONE', *, *, #42, .T. ) ;
#128 = PERSON_AND_ORGANIZATION_ROLE ( 'creator' ) ;
#129 = CC_DESIGN_SECURITY_CLASSIFICATION ( #39, ( #179 ) ) ;
#130 = CARTESIAN_POINT ( 'NONE',  ( -6.250000000000001776, -6.249999999999998224, 1.000000000000000000 ) ) ;
#131 = DATE_AND_TIME ( #146, #50 ) ;
#132 = EDGE_LOOP ( 'NONE', ( #113, #61, #71, #140 ) ) ;
#133 = PLANE ( 'NONE',  #155 ) ;
#134 = ADVANCED_BREP_SHAPE_REPRESENTATION ( 'Web Model 13396_13399', ( #157, #95 ), #44 ) ;
#135 = COORDINATED_UNIVERSAL_TIME_OFFSET ( 5, 0, .BEHIND. ) ;
#136 = LINE ( 'NONE', #130, #32 ) ;
#137 = APPROVAL ( #105, 'UNSPECIFIED' ) ;
#138 = DESIGN_CONTEXT ( 'detailed design', #236, 'design' ) ;
#139 = LOCAL_TIME ( 16, 28, 54.00000000000000000, #228 ) ;
#140 = ORIENTED_EDGE ( 'NONE', *, *, #170, .T. ) ;
#141 = EDGE_CURVE ( 'NONE', #206, #46, #210, .T. ) ;
#142 = DATE_AND_TIME ( #234, #112 ) ;
#143 = LINE ( 'NONE', #191, #86 ) ;
#144 = PERSON ( 'UNSPECIFIED', 'UNSPECIFIED', 'UNSPECIFIED', ('UNSPECIFIED'), ('UNSPECIFIED'), ('UNSPECIFIED') ) ;
#145 = CC_DESIGN_APPROVAL ( #115, ( #39 ) ) ;
#146 = CALENDAR_DATE ( 2021, 30, 6 ) ;
#147 = CARTESIAN_POINT ( 'NONE',  ( -6.250000000000003553, 6.250000000000001776, 0.000000000000000000 ) ) ;
#148 = CARTESIAN_POINT ( 'NONE',  ( -6.250000000000003553, 6.250000000000001776, 1.000000000000000000 ) ) ;
#149 = VECTOR ( 'NONE', #64, 1000.000000000000000 ) ;
#150 = APPLICATION_PROTOCOL_DEFINITION ( 'international standard', 'config_control_design', 1994, #196 ) ;
#151 = DIRECTION ( 'NONE',  ( 1.387778780781445676E-16, -1.000000000000000000, 0.000000000000000000 ) ) ;
#152 = PERSON_AND_ORGANIZATION ( #144, #23 ) ;
#153 = CARTESIAN_POINT ( 'NONE',  ( 6.249999999999996447, 6.250000000000001776, 1.000000000000000000 ) ) ;
#154 = APPROVAL_PERSON_ORGANIZATION ( #14, #24, #182 ) ;
#155 = AXIS2_PLACEMENT_3D ( 'NONE', #13, #87, #199 ) ;
#156 = VECTOR ( 'NONE', #216, 1000.000000000000000 ) ;
#157 = MANIFOLD_SOLID_BREP ( 'Boss-Extrude1', #215 ) ;
#158 = CC_DESIGN_PERSON_AND_ORGANIZATION_ASSIGNMENT ( #37, #162, ( #103 ) ) ;
#159 = ORIENTED_EDGE ( 'NONE', *, *, #69, .F. ) ;
#160 = CARTESIAN_POINT ( 'NONE',  ( -6.250000000000003553, 6.250000000000001776, 1.000000000000000000 ) ) ;
#161 = ORIENTED_EDGE ( 'NONE', *, *, #121, .T. ) ;
#162 = PERSON_AND_ORGANIZATION_ROLE ( 'creator' ) ;
#163 = ORIENTED_EDGE ( 'NONE', *, *, #141, .T. ) ;
#164 = PLANE ( 'NONE',  #79 ) ;
#165 = CARTESIAN_POINT ( 'NONE',  ( 6.249999999999996447, 6.250000000000001776, 1.000000000000000000 ) ) ;
#166 = CARTESIAN_POINT ( 'NONE',  ( -6.250000000000003553, 6.250000000000001776, 0.000000000000000000 ) ) ;
#167 = LINE ( 'NONE', #59, #231 ) ;
#168 = ORIENTED_EDGE ( 'NONE', *, *, #175, .T. ) ;
#169 = DATE_TIME_ROLE ( 'classification_date' ) ;
#170 = EDGE_CURVE ( 'NONE', #176, #4, #54, .T. ) ;
#171 = PRODUCT_RELATED_PRODUCT_CATEGORY ( 'detail', '', ( #200 ) ) ;
#172 = ORIENTED_EDGE ( 'NONE', *, *, #89, .T. ) ;
#173 = LOCAL_TIME ( 16, 28, 54.00000000000000000, #189 ) ;
#174 = VECTOR ( 'NONE', #52, 1000.000000000000000 ) ;
#175 = EDGE_CURVE ( 'NONE', #22, #204, #136, .T. ) ;
#176 = VERTEX_POINT ( 'NONE', #33 ) ;
#177 = COORDINATED_UNIVERSAL_TIME_OFFSET ( 5, 0, .BEHIND. ) ;
#178 = VERTEX_POINT ( 'NONE', #166 ) ;
#179 = PRODUCT_DEFINITION_FORMATION_WITH_SPECIFIED_SOURCE ( 'ANY', '', #200, .NOT_KNOWN. ) ;
#180 = CARTESIAN_POINT ( 'NONE',  ( -6.250000000000001776, -6.249999999999998224, 0.000000000000000000 ) ) ;
#181 = CARTESIAN_POINT ( 'NONE',  ( 0.000000000000000000, 0.000000000000000000, 0.000000000000000000 ) ) ;
#182 = APPROVAL_ROLE ( '' ) ;
#183 = ADVANCED_FACE ( 'NONE', ( #193 ), #133, .F. ) ;
#184 = EDGE_CURVE ( 'NONE', #206, #219, #102, .T. ) ;
#185 = DATE_AND_TIME ( #100, #78 ) ;
#186 = LINE ( 'NONE', #62, #6 ) ;
#187 = ADVANCED_FACE ( 'NONE', ( #19 ), #49, .F. ) ;
#188 = FACE_OUTER_BOUND ( 'NONE', #97, .T. ) ;
#189 = COORDINATED_UNIVERSAL_TIME_OFFSET ( 5, 0, .BEHIND. ) ;
#190 = DIRECTION ( 'NONE',  ( 1.000000000000000000, 0.000000000000000000, 0.000000000000000000 ) ) ;
#191 = CARTESIAN_POINT ( 'NONE',  ( -6.250000000000003553, 6.250000000000001776, 1.000000000000000000 ) ) ;
#192 = PERSON_AND_ORGANIZATION ( #144, #23 ) ;
#193 = FACE_OUTER_BOUND ( 'NONE', #198, .T. ) ;
#194 = EDGE_CURVE ( 'NONE', #176, #206, #226, .T. ) ;
#195 = PLANE ( 'NONE',  #224 ) ;
#196 = APPLICATION_CONTEXT ( 'configuration controlled 3d designs of mechanical parts and assemblies' ) ;
#197 = PERSON_AND_ORGANIZATION_ROLE ( 'design_owner' ) ;
#198 = EDGE_LOOP ( 'NONE', ( #172, #220, #27, #81 ) ) ;
#199 = DIRECTION ( 'NONE',  ( 0.000000000000000000, -0.000000000000000000, -1.000000000000000000 ) ) ;
#200 = PRODUCT ( 'Web Model 13396_13399', 'Web Model 13396_13399', '', ( #107 ) ) ;
#201 = PERSON_AND_ORGANIZATION ( #144, #23 ) ;
#202 = SHAPE_DEFINITION_REPRESENTATION ( #116, #134 ) ;
#203 = CC_DESIGN_APPROVAL ( #24, ( #103 ) ) ;
#204 = VERTEX_POINT ( 'NONE', #180 ) ;
#205 = ADVANCED_FACE ( 'NONE', ( #188 ), #164, .F. ) ;
#206 = VERTEX_POINT ( 'NONE', #110 ) ;
#207 = DATE_AND_TIME ( #125, #173 ) ;
#208 = ORIENTED_EDGE ( 'NONE', *, *, #221, .F. ) ;
#209 = PERSON_AND_ORGANIZATION ( #144, #23 ) ;
#210 = LINE ( 'NONE', #124, #117 ) ;
#211 = ORIENTED_EDGE ( 'NONE', *, *, #194, .T. ) ;
#212 = CARTESIAN_POINT ( 'NONE',  ( 0.000000000000000000, 0.000000000000000000, 0.000000000000000000 ) ) ;
#213 = CARTESIAN_POINT ( 'NONE',  ( 6.249999999999996447, 6.250000000000001776, 1.000000000000000000 ) ) ;
#214 = DATE_TIME_ROLE ( 'creation_date' ) ;
#215 = CLOSED_SHELL ( 'NONE', ( #187, #183, #111, #205, #55, #17 ) ) ;
#216 = DIRECTION ( 'NONE',  ( -0.000000000000000000, -0.000000000000000000, -1.000000000000000000 ) ) ;
#217 = CARTESIAN_POINT ( 'NONE',  ( 6.249999999999998224, -6.249999999999998224, 1.000000000000000000 ) ) ;
#218 = APPROVAL_DATE_TIME ( #82, #115 ) ;
#219 = VERTEX_POINT ( 'NONE', #232 ) ;
#220 = ORIENTED_EDGE ( 'NONE', *, *, #109, .F. ) ;
#221 = EDGE_CURVE ( 'NONE', #4, #219, #74, .T. ) ;
#222 = APPROVAL_DATE_TIME ( #142, #137 ) ;
#223 = EDGE_LOOP ( 'NONE', ( #208, #114, #159, #118 ) ) ;
#224 = AXIS2_PLACEMENT_3D ( 'NONE', #7, #8, #83 ) ;
#225 = EDGE_LOOP ( 'NONE', ( #211, #163, #57, #127 ) ) ;
#226 = LINE ( 'NONE', #165, #174 ) ;
#227 = CC_DESIGN_APPROVAL ( #137, ( #179 ) ) ;
#228 = COORDINATED_UNIVERSAL_TIME_OFFSET ( 5, 0, .BEHIND. ) ;
#229 = AXIS2_PLACEMENT_3D ( 'NONE', #160, #63, #47 ) ;
#230 = DIRECTION ( 'NONE',  ( -0.000000000000000000, -0.000000000000000000, -1.000000000000000000 ) ) ;
#231 = VECTOR ( 'NONE', #190, 1000.000000000000000 ) ;
#232 = CARTESIAN_POINT ( 'NONE',  ( 6.249999999999996447, 6.250000000000001776, 0.000000000000000000 ) ) ;
#233 = APPROVAL_ROLE ( '' ) ;
#234 = CALENDAR_DATE ( 2021, 30, 6 ) ;
#235 = AXIS2_PLACEMENT_3D ( 'NONE', #153, #35, #151 ) ;
#236 = APPLICATION_CONTEXT ( 'configuration controlled 3d designs of mechanical parts and assemblies' ) ;
#237 = DIRECTION ( 'NONE',  ( 1.000000000000000000, 0.000000000000000000, 0.000000000000000000 ) ) ;
ENDSEC;
END-ISO-10303-21;
