ISO-10303-21;
HEADER;
FILE_DESCRIPTION (( 'STEP AP203' ),
    '1' );
FILE_NAME ('Web Model 45463_84469.step',
    '2019-01-07T15:40:08',
    ( '' ),
    ( '' ),
    'SwSTEP 2.0',
    'SolidWorks 2016',
    '' );
FILE_SCHEMA (( 'CONFIG_CONTROL_DESIGN' ));
ENDSEC;

DATA;
#1 = DIRECTION ( 'NONE',  ( 0.0000000000000000000, 0.0000000000000000000, 1.000000000000000000 ) ) ;
#2 = CC_DESIGN_PERSON_AND_ORGANIZATION_ASSIGNMENT ( #126, #153, ( #156 ) ) ;
#3 = DIRECTION ( 'NONE',  ( 1.000000000000000000, 0.0000000000000000000, -0.0000000000000000000 ) ) ;
#4 = DATE_AND_TIME ( #118, #132 ) ;
#5 = CARTESIAN_POINT ( 'NONE',  ( 2.499999999999999600, 3.061616997868382600E-016, 0.5000000000000000000 ) ) ;
#6 = DIRECTION ( 'NONE',  ( 0.0000000000000000000, 0.0000000000000000000, 1.000000000000000000 ) ) ;
#7 = PERSON_AND_ORGANIZATION ( #53, #157 ) ;
#8 = PRODUCT_DEFINITION_SHAPE ( 'NONE', 'NONE',  #107 ) ;
#9 = VERTEX_POINT ( 'NONE', #79 ) ;
#10 = ADVANCED_FACE ( 'NONE', ( #91 ), #14, .F. ) ;
#11 = EDGE_LOOP ( 'NONE', ( #164, #37, #146, #88 ) ) ;
#12 = CC_DESIGN_PERSON_AND_ORGANIZATION_ASSIGNMENT ( #154, #128, ( #169 ) ) ;
#13 = CARTESIAN_POINT ( 'NONE',  ( 0.0000000000000000000, 0.0000000000000000000, 0.5000000000000000000 ) ) ;
#14 = PLANE ( 'NONE',  #56 ) ;
#15 = DIRECTION ( 'NONE',  ( 0.0000000000000000000, 0.0000000000000000000, 1.000000000000000000 ) ) ;
#16 = CIRCLE ( 'NONE', #100, 2.499999999999999600 ) ;
#17 = DIRECTION ( 'NONE',  ( -0.0000000000000000000, -0.0000000000000000000, -1.000000000000000000 ) ) ;
#18 = SECURITY_CLASSIFICATION_LEVEL ( 'unclassified' ) ;
#19 = PERSON_AND_ORGANIZATION_ROLE ( 'design_supplier' ) ;
#20 = ORIENTED_EDGE ( 'NONE', *, *, #74, .F. ) ;
#21 = APPROVAL ( #94, 'UNSPECIFIED' ) ;
#22 = VECTOR ( 'NONE', #17, 1000.000000000000000 ) ;
#23 = VECTOR ( 'NONE', #123, 1000.000000000000000 ) ;
#24 = AXIS2_PLACEMENT_3D ( 'NONE', #103, #106, #105 ) ;
#25 = ADVANCED_FACE ( 'NONE', ( #42 ), #84, .T. ) ;
#26 = EDGE_CURVE ( 'NONE', #60, #9, #95, .T. ) ;
#27 = CALENDAR_DATE ( 2019, 7, 1 ) ;
#28 = CALENDAR_DATE ( 2019, 7, 1 ) ;
#29 = CARTESIAN_POINT ( 'NONE',  ( -2.499999999999999600, 0.0000000000000000000, 0.5000000000000000000 ) ) ;
#30 = CC_DESIGN_PERSON_AND_ORGANIZATION_ASSIGNMENT ( #45, #19, ( #156 ) ) ;
#31 = DIRECTION ( 'NONE',  ( -1.000000000000000000, 0.0000000000000000000, 0.0000000000000000000 ) ) ;
#32 = PERSON_AND_ORGANIZATION ( #53, #157 ) ;
#33 = FACE_OUTER_BOUND ( 'NONE', #92, .T. ) ;
#34 = CC_DESIGN_DATE_AND_TIME_ASSIGNMENT ( #57, #68, ( #107 ) ) ;
#35 = SHAPE_DEFINITION_REPRESENTATION ( #8, #113 ) ;
#36 = CARTESIAN_POINT ( 'NONE',  ( 0.0000000000000000000, 0.0000000000000000000, 0.5000000000000000000 ) ) ;
#37 = ORIENTED_EDGE ( 'NONE', *, *, #102, .T. ) ;
#38 = MECHANICAL_CONTEXT ( 'NONE', #141, 'mechanical' ) ;
#39 = CIRCLE ( 'NONE', #159, 2.499999999999999600 ) ;
#40 = APPROVAL_ROLE ( '' ) ;
#41 = CC_DESIGN_DATE_AND_TIME_ASSIGNMENT ( #73, #110, ( #169 ) ) ;
#42 = FACE_OUTER_BOUND ( 'NONE', #11, .T. ) ;
#43 = EDGE_LOOP ( 'NONE', ( #86, #20, #144, #129 ) ) ;
#44 = EDGE_CURVE ( 'NONE', #151, #60, #55, .T. ) ;
#45 = PERSON_AND_ORGANIZATION ( #53, #157 ) ;
#46 = ADVANCED_FACE ( 'NONE', ( #33 ), #161, .T. ) ;
#47 = ORIENTED_EDGE ( 'NONE', *, *, #87, .F. ) ;
#48 = FACE_OUTER_BOUND ( 'NONE', #43, .T. ) ;
#49 = PERSON_AND_ORGANIZATION_ROLE ( 'design_owner' ) ;
#50 = DATE_AND_TIME ( #27, #114 ) ;
#51 = APPLICATION_CONTEXT ( 'configuration controlled 3d designs of mechanical parts and assemblies' ) ;
#52 = APPROVAL_DATE_TIME ( #131, #172 ) ;
#53 = PERSON ( 'UNSPECIFIED', 'UNSPECIFIED', 'UNSPECIFIED', ('UNSPECIFIED'), ('UNSPECIFIED'), ('UNSPECIFIED') ) ;
#54 = DIRECTION ( 'NONE',  ( 0.0000000000000000000, 0.0000000000000000000, 1.000000000000000000 ) ) ;
#55 = LINE ( 'NONE', #29, #23 ) ;
#56 = AXIS2_PLACEMENT_3D ( 'NONE', #149, #1, #3 ) ;
#57 = DATE_AND_TIME ( #99, #160 ) ;
#58 = ADVANCED_FACE ( 'NONE', ( #48 ), #158, .T. ) ;
#59 = DIRECTION ( 'NONE',  ( 1.000000000000000000, 0.0000000000000000000, 0.0000000000000000000 ) ) ;
#60 = VERTEX_POINT ( 'NONE', #61 ) ;
#61 = CARTESIAN_POINT ( 'NONE',  ( -2.499999999999999600, 0.0000000000000000000, -0.5000000000000000000 ) ) ;
#62 = AXIS2_PLACEMENT_3D ( 'NONE', #119, #63, #137 ) ;
#63 = DIRECTION ( 'NONE',  ( 0.0000000000000000000, 0.0000000000000000000, 1.000000000000000000 ) ) ;
#64 = PRODUCT ( 'Web Model 45463_84469', 'Web Model 45463_84469', '', ( #38 ) ) ;
#65 = PERSON_AND_ORGANIZATION ( #53, #157 ) ;
#66 = UNCERTAINTY_MEASURE_WITH_UNIT (LENGTH_MEASURE( 1.000000000000000100E-005 ), #96, 'distance_accuracy_value', 'NONE');
#67 = CARTESIAN_POINT ( 'NONE',  ( 0.0000000000000000000, 0.0000000000000000000, 0.5000000000000000000 ) ) ;
#68 = DATE_TIME_ROLE ( 'creation_date' ) ;
#69 =( NAMED_UNIT ( * ) SI_UNIT ( $, .STERADIAN. ) SOLID_ANGLE_UNIT ( ) );
#70 = APPROVAL_PERSON_ORGANIZATION ( #81, #21, #40 ) ;
#71 = APPROVAL_ROLE ( '' ) ;
#72 = APPROVAL_PERSON_ORGANIZATION ( #171, #112, #108 ) ;
#73 = DATE_AND_TIME ( #28, #77 ) ;
#74 = EDGE_CURVE ( 'NONE', #151, #174, #16, .T. ) ;
#75 = EDGE_LOOP ( 'NONE', ( #85, #47 ) ) ;
#76 = APPROVAL_DATE_TIME ( #50, #21 ) ;
#77 = LOCAL_TIME ( 10, 40, 8.000000000000000000, #115 ) ;
#78 = AXIS2_PLACEMENT_3D ( 'NONE', #109, #54, #97 ) ;
#79 = CARTESIAN_POINT ( 'NONE',  ( 2.499999999999999600, 3.061616997868382600E-016, -0.5000000000000000000 ) ) ;
#80 = DIRECTION ( 'NONE',  ( -0.0000000000000000000, -0.0000000000000000000, -1.000000000000000000 ) ) ;
#81 = PERSON_AND_ORGANIZATION ( #53, #157 ) ;
#82 = LOCAL_TIME ( 10, 40, 8.000000000000000000, #133 ) ;
#83 = APPLICATION_PROTOCOL_DEFINITION ( 'international standard', 'config_control_design', 1994, #141 ) ;
#84 = CYLINDRICAL_SURFACE ( 'NONE', #89, 2.499999999999999600 ) ;
#85 = ORIENTED_EDGE ( 'NONE', *, *, #26, .F. ) ;
#86 = ORIENTED_EDGE ( 'NONE', *, *, #102, .F. ) ;
#87 = EDGE_CURVE ( 'NONE', #9, #60, #39, .T. ) ;
#88 = ORIENTED_EDGE ( 'NONE', *, *, #44, .F. ) ;
#89 = AXIS2_PLACEMENT_3D ( 'NONE', #13, #80, #121 ) ;
#90 = APPROVAL_DATE_TIME ( #4, #112 ) ;
#91 = FACE_OUTER_BOUND ( 'NONE', #75, .T. ) ;
#92 = EDGE_LOOP ( 'NONE', ( #135, #122 ) ) ;
#93 = CC_DESIGN_PERSON_AND_ORGANIZATION_ASSIGNMENT ( #7, #49, ( #64 ) ) ;
#94 = APPROVAL_STATUS ( 'not_yet_approved' ) ;
#95 = CIRCLE ( 'NONE', #24, 2.499999999999999600 ) ;
#96 =( LENGTH_UNIT ( ) NAMED_UNIT ( * ) SI_UNIT ( .MILLI., .METRE. ) );
#97 = DIRECTION ( 'NONE',  ( 1.000000000000000000, 0.0000000000000000000, 0.0000000000000000000 ) ) ;
#98 =( GEOMETRIC_REPRESENTATION_CONTEXT ( 3 ) GLOBAL_UNCERTAINTY_ASSIGNED_CONTEXT ( ( #66 ) ) GLOBAL_UNIT_ASSIGNED_CONTEXT ( ( #96, #170, #69 ) ) REPRESENTATION_CONTEXT ( 'NONE', 'WORKASPACE' ) );
#99 = CALENDAR_DATE ( 2019, 7, 1 ) ;
#100 = AXIS2_PLACEMENT_3D ( 'NONE', #134, #148, #59 ) ;
#101 = CLOSED_SHELL ( 'NONE', ( #25, #58, #46, #10 ) ) ;
#102 = EDGE_CURVE ( 'NONE', #174, #9, #150, .T. ) ;
#103 = CARTESIAN_POINT ( 'NONE',  ( 0.0000000000000000000, 0.0000000000000000000, -0.5000000000000000000 ) ) ;
#104 = DESIGN_CONTEXT ( 'detailed design', #51, 'design' ) ;
#105 = DIRECTION ( 'NONE',  ( 1.000000000000000000, 0.0000000000000000000, 0.0000000000000000000 ) ) ;
#106 = DIRECTION ( 'NONE',  ( 0.0000000000000000000, 0.0000000000000000000, 1.000000000000000000 ) ) ;
#107 = PRODUCT_DEFINITION ( 'UNKNOWN', '', #156, #104 ) ;
#108 = APPROVAL_ROLE ( '' ) ;
#109 = CARTESIAN_POINT ( 'NONE',  ( 0.0000000000000000000, 0.0000000000000000000, 0.0000000000000000000 ) ) ;
#110 = DATE_TIME_ROLE ( 'classification_date' ) ;
#111 = CARTESIAN_POINT ( 'NONE',  ( 2.499999999999999600, 3.061616997868382600E-016, 0.5000000000000000000 ) ) ;
#112 = APPROVAL ( #127, 'UNSPECIFIED' ) ;
#113 = ADVANCED_BREP_SHAPE_REPRESENTATION ( 'Web Model 45463_84469', ( #145, #78 ), #98 ) ;
#114 = LOCAL_TIME ( 10, 40, 8.000000000000000000, #120 ) ;
#115 = COORDINATED_UNIVERSAL_TIME_OFFSET ( 5, 0, .BEHIND. ) ;
#116 = CC_DESIGN_SECURITY_CLASSIFICATION ( #169, ( #156 ) ) ;
#117 = CIRCLE ( 'NONE', #130, 2.499999999999999600 ) ;
#118 = CALENDAR_DATE ( 2019, 7, 1 ) ;
#119 = CARTESIAN_POINT ( 'NONE',  ( 0.0000000000000000000, 0.0000000000000000000, 0.5000000000000000000 ) ) ;
#120 = COORDINATED_UNIVERSAL_TIME_OFFSET ( 5, 0, .BEHIND. ) ;
#121 = DIRECTION ( 'NONE',  ( -1.000000000000000000, 0.0000000000000000000, 0.0000000000000000000 ) ) ;
#122 = ORIENTED_EDGE ( 'NONE', *, *, #143, .T. ) ;
#123 = DIRECTION ( 'NONE',  ( -0.0000000000000000000, -0.0000000000000000000, -1.000000000000000000 ) ) ;
#124 = DIRECTION ( 'NONE',  ( 1.000000000000000000, 0.0000000000000000000, 0.0000000000000000000 ) ) ;
#125 = CARTESIAN_POINT ( 'NONE',  ( -2.499999999999999600, 0.0000000000000000000, 0.5000000000000000000 ) ) ;
#126 = PERSON_AND_ORGANIZATION ( #53, #157 ) ;
#127 = APPROVAL_STATUS ( 'not_yet_approved' ) ;
#128 = PERSON_AND_ORGANIZATION_ROLE ( 'classification_officer' ) ;
#129 = ORIENTED_EDGE ( 'NONE', *, *, #26, .T. ) ;
#130 = AXIS2_PLACEMENT_3D ( 'NONE', #67, #6, #124 ) ;
#131 = DATE_AND_TIME ( #166, #82 ) ;
#132 = LOCAL_TIME ( 10, 40, 8.000000000000000000, #175 ) ;
#133 = COORDINATED_UNIVERSAL_TIME_OFFSET ( 5, 0, .BEHIND. ) ;
#134 = CARTESIAN_POINT ( 'NONE',  ( 0.0000000000000000000, 0.0000000000000000000, 0.5000000000000000000 ) ) ;
#135 = ORIENTED_EDGE ( 'NONE', *, *, #74, .T. ) ;
#136 = CC_DESIGN_APPROVAL ( #112, ( #107 ) ) ;
#137 = DIRECTION ( 'NONE',  ( 1.000000000000000000, 0.0000000000000000000, -0.0000000000000000000 ) ) ;
#138 = DIRECTION ( 'NONE',  ( 1.000000000000000000, 0.0000000000000000000, 0.0000000000000000000 ) ) ;
#139 = COORDINATED_UNIVERSAL_TIME_OFFSET ( 5, 0, .BEHIND. ) ;
#140 = CC_DESIGN_PERSON_AND_ORGANIZATION_ASSIGNMENT ( #65, #152, ( #107 ) ) ;
#141 = APPLICATION_CONTEXT ( 'configuration controlled 3d designs of mechanical parts and assemblies' ) ;
#142 = APPLICATION_PROTOCOL_DEFINITION ( 'international standard', 'config_control_design', 1994, #51 ) ;
#143 = EDGE_CURVE ( 'NONE', #174, #151, #117, .T. ) ;
#144 = ORIENTED_EDGE ( 'NONE', *, *, #44, .T. ) ;
#145 = MANIFOLD_SOLID_BREP ( 'Boss-Extrude1', #101 ) ;
#146 = ORIENTED_EDGE ( 'NONE', *, *, #87, .T. ) ;
#147 = CC_DESIGN_APPROVAL ( #21, ( #169 ) ) ;
#148 = DIRECTION ( 'NONE',  ( 0.0000000000000000000, 0.0000000000000000000, 1.000000000000000000 ) ) ;
#149 = CARTESIAN_POINT ( 'NONE',  ( 0.0000000000000000000, 0.0000000000000000000, -0.5000000000000000000 ) ) ;
#150 = LINE ( 'NONE', #5, #22 ) ;
#151 = VERTEX_POINT ( 'NONE', #125 ) ;
#152 = PERSON_AND_ORGANIZATION_ROLE ( 'creator' ) ;
#153 = PERSON_AND_ORGANIZATION_ROLE ( 'creator' ) ;
#154 = PERSON_AND_ORGANIZATION ( #53, #157 ) ;
#155 = AXIS2_PLACEMENT_3D ( 'NONE', #36, #163, #31 ) ;
#156 = PRODUCT_DEFINITION_FORMATION_WITH_SPECIFIED_SOURCE ( 'ANY', '', #64, .NOT_KNOWN. ) ;
#157 = ORGANIZATION ( 'UNSPECIFIED', 'UNSPECIFIED', '' ) ;
#158 = CYLINDRICAL_SURFACE ( 'NONE', #155, 2.499999999999999600 ) ;
#159 = AXIS2_PLACEMENT_3D ( 'NONE', #168, #15, #138 ) ;
#160 = LOCAL_TIME ( 10, 40, 8.000000000000000000, #139 ) ;
#161 = PLANE ( 'NONE',  #62 ) ;
#162 = CC_DESIGN_APPROVAL ( #172, ( #156 ) ) ;
#163 = DIRECTION ( 'NONE',  ( -0.0000000000000000000, -0.0000000000000000000, -1.000000000000000000 ) ) ;
#164 = ORIENTED_EDGE ( 'NONE', *, *, #143, .F. ) ;
#165 = APPROVAL_STATUS ( 'not_yet_approved' ) ;
#166 = CALENDAR_DATE ( 2019, 7, 1 ) ;
#167 = PRODUCT_RELATED_PRODUCT_CATEGORY ( 'detail', '', ( #64 ) ) ;
#168 = CARTESIAN_POINT ( 'NONE',  ( 0.0000000000000000000, 0.0000000000000000000, -0.5000000000000000000 ) ) ;
#169 = SECURITY_CLASSIFICATION ( '', '', #18 ) ;
#170 =( NAMED_UNIT ( * ) PLANE_ANGLE_UNIT ( ) SI_UNIT ( $, .RADIAN. ) );
#171 = PERSON_AND_ORGANIZATION ( #53, #157 ) ;
#172 = APPROVAL ( #165, 'UNSPECIFIED' ) ;
#173 = APPROVAL_PERSON_ORGANIZATION ( #32, #172, #71 ) ;
#174 = VERTEX_POINT ( 'NONE', #111 ) ;
#175 = COORDINATED_UNIVERSAL_TIME_OFFSET ( 5, 0, .BEHIND. ) ;
ENDSEC;
END-ISO-10303-21;
