ISO-10303-21;
HEADER;
FILE_DESCRIPTION (( 'STEP AP203' ),
    '1' );
FILE_NAME ('step_49006.step',
    '2014-06-12T17:59:49',
    ( '' ),
    ( '' ),
    'SwSTEP 2.0',
    'SolidWorks 2014',
    '' );
FILE_SCHEMA (( 'CONFIG_CONTROL_DESIGN' ));
ENDSEC;

DATA;
#1 = APPROVAL ( #177, 'UNSPECIFIED' ) ;
#2 = DIRECTION ( 'NONE',  ( -0.7071067811865475700, -0.7071067811865475700, 0.0000000000000000000 ) ) ;
#3 = VECTOR ( 'NONE', #298, 1000.000000000000100 ) ;
#4 = COORDINATED_UNIVERSAL_TIME_OFFSET ( 7, 0, .BEHIND. ) ;
#5 = CARTESIAN_POINT ( 'NONE',  ( -5.510910596163089600E-015, 50.00000000000000000, 50.00000000000000000 ) ) ;
#6 =( LENGTH_UNIT ( ) NAMED_UNIT ( * ) SI_UNIT ( .MILLI., .METRE. ) );
#7 = CARTESIAN_POINT ( 'NONE',  ( 0.0000000000000000000, 0.0000000000000000000, 50.00000000000000000 ) ) ;
#8 = VECTOR ( 'NONE', #71, 1000.000000000000100 ) ;
#9 = PERSON_AND_ORGANIZATION_ROLE ( 'design_supplier' ) ;
#10 =( NAMED_UNIT ( * ) SI_UNIT ( $, .STERADIAN. ) SOLID_ANGLE_UNIT ( ) );
#11 = PERSON_AND_ORGANIZATION ( #179, #304 ) ;
#12 = ADVANCED_BREP_SHAPE_REPRESENTATION ( 'step_49006', ( #143, #233, #133 ), #299 ) ;
#13 = VECTOR ( 'NONE', #295, 1000.000000000000000 ) ;
#14 = VECTOR ( 'NONE', #258, 1000.000000000000000 ) ;
#15 = DIRECTION ( 'NONE',  ( -0.0000000000000000000, -0.0000000000000000000, -1.000000000000000000 ) ) ;
#16 = LOCAL_TIME ( 10, 59, 49.00000000000000000, #57 ) ;
#17 = EDGE_CURVE ( 'NONE', #235, #159, #105, .T. ) ;
#18 = ADVANCED_FACE ( 'NONE', ( #93 ), #187, .T. ) ;
#19 = EDGE_LOOP ( 'NONE', ( #66, #75, #218, #242 ) ) ;
#20 = VERTEX_POINT ( 'NONE', #165 ) ;
#21 = PERSON_AND_ORGANIZATION ( #179, #304 ) ;
#22 = AXIS2_PLACEMENT_3D ( 'NONE', #97, #173, #254 ) ;
#23 = EDGE_CURVE ( 'NONE', #271, #159, #278, .T. ) ;
#24 = FACE_OUTER_BOUND ( 'NONE', #100, .T. ) ;
#25 = EDGE_LOOP ( 'NONE', ( #318, #230, #292 ) ) ;
#26 = PERSON_AND_ORGANIZATION ( #179, #304 ) ;
#27 = CALENDAR_DATE ( 2014, 12, 6 ) ;
#28 = AXIS2_PLACEMENT_3D ( 'NONE', #312, #204, #153 ) ;
#29 = DIRECTION ( 'NONE',  ( -0.0000000000000000000, -0.0000000000000000000, -1.000000000000000000 ) ) ;
#30 = EDGE_CURVE ( 'NONE', #228, #235, #113, .T. ) ;
#31 = FACE_OUTER_BOUND ( 'NONE', #19, .T. ) ;
#32 = DIRECTION ( 'NONE',  ( -0.0000000000000000000, -0.0000000000000000000, -1.000000000000000000 ) ) ;
#33 = DIRECTION ( 'NONE',  ( 0.0000000000000000000, 1.000000000000000000, 0.0000000000000000000 ) ) ;
#34 = CARTESIAN_POINT ( 'NONE',  ( -5.510910596163089600E-015, 50.00000000000000000, 50.00000000000000000 ) ) ;
#35 = DIRECTION ( 'NONE',  ( 0.0000000000000000000, 0.0000000000000000000, 1.000000000000000000 ) ) ;
#36 = VECTOR ( 'NONE', #32, 1000.000000000000000 ) ;
#37 = CARTESIAN_POINT ( 'NONE',  ( 50.00000000000000000, 0.0000000000000000000, 50.00000000000000000 ) ) ;
#38 = DIRECTION ( 'NONE',  ( 0.0000000000000000000, 0.0000000000000000000, -1.000000000000000000 ) ) ;
#39 = LINE ( 'NONE', #158, #69 ) ;
#40 = LINE ( 'NONE', #37, #171 ) ;
#41 = PLANE ( 'NONE',  #288 ) ;
#42 = EDGE_CURVE ( 'NONE', #271, #126, #274, .T. ) ;
#43 = CARTESIAN_POINT ( 'NONE',  ( -5.510910596163089600E-015, 50.00000000000000000, 50.00000000000000000 ) ) ;
#44 = LOCAL_TIME ( 10, 59, 49.00000000000000000, #294 ) ;
#45 = DIRECTION ( 'NONE',  ( 1.000000000000000000, 0.0000000000000000000, 0.0000000000000000000 ) ) ;
#46 = AXIS2_PLACEMENT_3D ( 'NONE', #136, #103, #178 ) ;
#47 = DIRECTION ( 'NONE',  ( 1.000000000000000000, 0.0000000000000000000, -0.0000000000000000000 ) ) ;
#48 = ADVANCED_FACE ( 'NONE', ( #24 ), #224, .F. ) ;
#49 = AXIS2_PLACEMENT_3D ( 'NONE', #160, #279, #266 ) ;
#50 = SHAPE_DEFINITION_REPRESENTATION ( #135, #12 ) ;
#51 = DIRECTION ( 'NONE',  ( 0.0000000000000000000, 0.0000000000000000000, 1.000000000000000000 ) ) ;
#52 = LINE ( 'NONE', #92, #243 ) ;
#53 = FACE_OUTER_BOUND ( 'NONE', #55, .T. ) ;
#54 = DATE_AND_TIME ( #167, #145 ) ;
#55 = EDGE_LOOP ( 'NONE', ( #220, #80, #303, #310 ) ) ;
#56 = CARTESIAN_POINT ( 'NONE',  ( 0.0000000000000000000, 0.0000000000000000000, 0.0000000000000000000 ) ) ;
#57 = COORDINATED_UNIVERSAL_TIME_OFFSET ( 7, 0, .BEHIND. ) ;
#58 = EDGE_LOOP ( 'NONE', ( #270, #262, #114, #212 ) ) ;
#59 = VECTOR ( 'NONE', #148, 1000.000000000000000 ) ;
#60 = FACE_OUTER_BOUND ( 'NONE', #58, .T. ) ;
#61 = CARTESIAN_POINT ( 'NONE',  ( -5.510910596163089600E-015, 50.00000000000000000, 50.00000000000000000 ) ) ;
#62 = DATE_AND_TIME ( #27, #151 ) ;
#63 = PLANE ( 'NONE',  #306 ) ;
#64 = CARTESIAN_POINT ( 'NONE',  ( 50.00000000000000000, 50.00000000000001400, 0.0000000000000000000 ) ) ;
#65 = APPLICATION_PROTOCOL_DEFINITION ( 'international standard', 'config_control_design', 1994, #259 ) ;
#66 = ORIENTED_EDGE ( 'NONE', *, *, #81, .T. ) ;
#67 = CARTESIAN_POINT ( 'NONE',  ( 50.00000000000000000, 0.0000000000000000000, 50.00000000000000000 ) ) ;
#68 = PERSON_AND_ORGANIZATION_ROLE ( 'creator' ) ;
#69 = VECTOR ( 'NONE', #94, 1000.000000000000100 ) ;
#70 = MECHANICAL_CONTEXT ( 'NONE', #144, 'mechanical' ) ;
#71 = DIRECTION ( 'NONE',  ( 0.7071067811865474600, -0.7071067811865474600, 0.0000000000000000000 ) ) ;
#72 = DATE_TIME_ROLE ( 'creation_date' ) ;
#73 = DIRECTION ( 'NONE',  ( 1.102182119232617800E-016, -1.000000000000000000, 0.0000000000000000000 ) ) ;
#74 = EDGE_CURVE ( 'NONE', #126, #106, #196, .T. ) ;
#75 = ORIENTED_EDGE ( 'NONE', *, *, #30, .F. ) ;
#76 = LINE ( 'NONE', #286, #215 ) ;
#77 = ORIENTED_EDGE ( 'NONE', *, *, #89, .F. ) ;
#78 = CARTESIAN_POINT ( 'NONE',  ( 0.0000000000000000000, 0.0000000000000000000, 0.0000000000000000000 ) ) ;
#79 = AXIS2_PLACEMENT_3D ( 'NONE', #192, #180, #164 ) ;
#80 = ORIENTED_EDGE ( 'NONE', *, *, #120, .F. ) ;
#81 = EDGE_CURVE ( 'NONE', #106, #235, #321, .T. ) ;
#82 = LINE ( 'NONE', #98, #197 ) ;
#83 = ORIENTED_EDGE ( 'NONE', *, *, #17, .F. ) ;
#84 = VERTEX_POINT ( 'NONE', #130 ) ;
#85 = AXIS2_PLACEMENT_3D ( 'NONE', #263, #2, #155 ) ;
#86 = VECTOR ( 'NONE', #29, 1000.000000000000000 ) ;
#87 = UNCERTAINTY_MEASURE_WITH_UNIT (LENGTH_MEASURE( 1.000000000000000100E-005 ), #6, 'distance_accuracy_value', 'NONE');
#88 = EDGE_CURVE ( 'NONE', #126, #228, #190, .T. ) ;
#89 = EDGE_CURVE ( 'NONE', #228, #271, #39, .T. ) ;
#90 = EDGE_CURVE ( 'NONE', #159, #106, #52, .T. ) ;
#91 = FACE_OUTER_BOUND ( 'NONE', #260, .T. ) ;
#92 = CARTESIAN_POINT ( 'NONE',  ( -5.510910596163089600E-015, 50.00000000000000000, 0.0000000000000000000 ) ) ;
#93 = FACE_OUTER_BOUND ( 'NONE', #137, .T. ) ;
#94 = DIRECTION ( 'NONE',  ( -0.7071067811865474600, 0.7071067811865474600, 0.0000000000000000000 ) ) ;
#95 = VECTOR ( 'NONE', #314, 1000.000000000000100 ) ;
#96 = PRODUCT_DEFINITION ( 'UNKNOWN', '', #234, #269 ) ;
#97 = CARTESIAN_POINT ( 'NONE',  ( 0.0000000000000000000, 0.0000000000000000000, 0.0000000000000000000 ) ) ;
#98 = CARTESIAN_POINT ( 'NONE',  ( 50.00000000000000000, 0.0000000000000000000, 50.00000000000000000 ) ) ;
#99 = CARTESIAN_POINT ( 'NONE',  ( 50.00000000000000000, 0.0000000000000000000, 0.0000000000000000000 ) ) ;
#100 = EDGE_LOOP ( 'NONE', ( #214, #193, #104, #257 ) ) ;
#101 = CC_DESIGN_PERSON_AND_ORGANIZATION_ASSIGNMENT ( #283, #217, ( #123 ) ) ;
#102 = PERSON_AND_ORGANIZATION ( #179, #304 ) ;
#103 = DIRECTION ( 'NONE',  ( 2.775557561562890900E-016, -1.000000000000000000, 0.0000000000000000000 ) ) ;
#104 = ORIENTED_EDGE ( 'NONE', *, *, #42, .F. ) ;
#105 = LINE ( 'NONE', #99, #95 ) ;
#106 = VERTEX_POINT ( 'NONE', #78 ) ;
#107 = VERTEX_POINT ( 'NONE', #67 ) ;
#108 = ADVANCED_FACE ( 'NONE', ( #91 ), #63, .F. ) ;
#109 = EDGE_CURVE ( 'NONE', #116, #175, #305, .T. ) ;
#110 = LOCAL_TIME ( 10, 59, 49.00000000000000000, #4 ) ;
#111 = APPROVAL_DATE_TIME ( #272, #1 ) ;
#112 = EDGE_CURVE ( 'NONE', #116, #107, #139, .T. ) ;
#113 = LINE ( 'NONE', #248, #36 ) ;
#114 = ORIENTED_EDGE ( 'NONE', *, *, #132, .F. ) ;
#115 = DIRECTION ( 'NONE',  ( 0.0000000000000000000, 1.000000000000000000, 0.0000000000000000000 ) ) ;
#116 = VERTEX_POINT ( 'NONE', #5 ) ;
#117 = PLANE ( 'NONE',  #46 ) ;
#118 = COORDINATED_UNIVERSAL_TIME_OFFSET ( 7, 0, .BEHIND. ) ;
#119 = DIRECTION ( 'NONE',  ( 1.000000000000000000, 0.0000000000000000000, 0.0000000000000000000 ) ) ;
#120 = EDGE_CURVE ( 'NONE', #107, #20, #40, .T. ) ;
#121 = PLANE ( 'NONE',  #85 ) ;
#122 = CALENDAR_DATE ( 2014, 12, 6 ) ;
#123 = PRODUCT ( 'step_49006', 'step_49006', '', ( #70 ) ) ;
#124 = DATE_TIME_ROLE ( 'classification_date' ) ;
#125 = EDGE_CURVE ( 'NONE', #20, #186, #134, .T. ) ;
#126 = VERTEX_POINT ( 'NONE', #7 ) ;
#127 = CLOSED_SHELL ( 'NONE', ( #131, #320, #273, #229, #18 ) ) ;
#128 = ORIENTED_EDGE ( 'NONE', *, *, #17, .T. ) ;
#129 = VECTOR ( 'NONE', #119, 1000.000000000000000 ) ;
#130 = CARTESIAN_POINT ( 'NONE',  ( 50.00000000000000000, 50.00000000000001400, 50.00000000000000000 ) ) ;
#131 = ADVANCED_FACE ( 'NONE', ( #216 ), #117, .F. ) ;
#132 = EDGE_CURVE ( 'NONE', #107, #84, #82, .T. ) ;
#133 = AXIS2_PLACEMENT_3D ( 'NONE', #307, #287, #45 ) ;
#134 = LINE ( 'NONE', #142, #238 ) ;
#135 = PRODUCT_DEFINITION_SHAPE ( 'NONE', 'NONE',  #96 ) ;
#136 = CARTESIAN_POINT ( 'NONE',  ( 50.00000000000000000, 50.00000000000001400, 50.00000000000000000 ) ) ;
#137 = EDGE_LOOP ( 'NONE', ( #206, #157, #210 ) ) ;
#138 = CARTESIAN_POINT ( 'NONE',  ( 0.0000000000000000000, 0.0000000000000000000, 0.0000000000000000000 ) ) ;
#139 = LINE ( 'NONE', #43, #8 ) ;
#140 = PRODUCT_RELATED_PRODUCT_CATEGORY ( 'detail', '', ( #123 ) ) ;
#141 = CARTESIAN_POINT ( 'NONE',  ( 0.0000000000000000000, 0.0000000000000000000, 50.00000000000000000 ) ) ;
#142 = CARTESIAN_POINT ( 'NONE',  ( 50.00000000000000000, 0.0000000000000000000, 0.0000000000000000000 ) ) ;
#143 = MANIFOLD_SOLID_BREP ( 'Boss-Extrude1', #300 ) ;
#144 = APPLICATION_CONTEXT ( 'configuration controlled 3d designs of mechanical parts and assemblies' ) ;
#145 = LOCAL_TIME ( 10, 59, 49.00000000000000000, #253 ) ;
#146 = CARTESIAN_POINT ( 'NONE',  ( -5.510910596163089600E-015, 50.00000000000000000, 50.00000000000000000 ) ) ;
#147 = CARTESIAN_POINT ( 'NONE',  ( 50.00000000000000000, 0.0000000000000000000, 50.00000000000000000 ) ) ;
#148 = DIRECTION ( 'NONE',  ( 1.000000000000000000, 0.0000000000000000000, 0.0000000000000000000 ) ) ;
#149 = PERSON_AND_ORGANIZATION ( #179, #304 ) ;
#150 = CARTESIAN_POINT ( 'NONE',  ( -5.510910596163089600E-015, 50.00000000000000000, 0.0000000000000000000 ) ) ;
#151 = LOCAL_TIME ( 10, 59, 49.00000000000000000, #118 ) ;
#152 = DIRECTION ( 'NONE',  ( -1.000000000000000000, 0.0000000000000000000, 0.0000000000000000000 ) ) ;
#153 = DIRECTION ( 'NONE',  ( 1.000000000000000000, 0.0000000000000000000, -0.0000000000000000000 ) ) ;
#154 = CC_DESIGN_SECURITY_CLASSIFICATION ( #199, ( #234 ) ) ;
#155 = DIRECTION ( 'NONE',  ( 0.7071067811865474600, -0.7071067811865474600, 0.0000000000000000000 ) ) ;
#156 = PERSON_AND_ORGANIZATION_ROLE ( 'creator' ) ;
#157 = ORIENTED_EDGE ( 'NONE', *, *, #125, .F. ) ;
#158 = CARTESIAN_POINT ( 'NONE',  ( 50.00000000000000000, 0.0000000000000000000, 50.00000000000000000 ) ) ;
#159 = VERTEX_POINT ( 'NONE', #172 ) ;
#160 = CARTESIAN_POINT ( 'NONE',  ( 0.0000000000000000000, 0.0000000000000000000, 50.00000000000000000 ) ) ;
#161 = ADVANCED_FACE ( 'NONE', ( #282 ), #261, .T. ) ;
#162 = CARTESIAN_POINT ( 'NONE',  ( 0.0000000000000000000, 0.0000000000000000000, 50.00000000000000000 ) ) ;
#163 = CC_DESIGN_APPROVAL ( #166, ( #199 ) ) ;
#164 = DIRECTION ( 'NONE',  ( -1.102182119232617800E-016, 1.000000000000000000, 0.0000000000000000000 ) ) ;
#165 = CARTESIAN_POINT ( 'NONE',  ( 50.00000000000000000, 0.0000000000000000000, 0.0000000000000000000 ) ) ;
#166 = APPROVAL ( #219, 'UNSPECIFIED' ) ;
#167 = CALENDAR_DATE ( 2014, 12, 6 ) ;
#168 = EDGE_LOOP ( 'NONE', ( #191, #255, #289 ) ) ;
#169 = FACE_OUTER_BOUND ( 'NONE', #168, .T. ) ;
#170 = CARTESIAN_POINT ( 'NONE',  ( 50.00000000000000000, 0.0000000000000000000, 50.00000000000000000 ) ) ;
#171 = VECTOR ( 'NONE', #15, 1000.000000000000000 ) ;
#172 = CARTESIAN_POINT ( 'NONE',  ( -5.510910596163089600E-015, 50.00000000000000000, 0.0000000000000000000 ) ) ;
#173 = DIRECTION ( 'NONE',  ( 0.0000000000000000000, 0.0000000000000000000, -1.000000000000000000 ) ) ;
#174 = DIRECTION ( 'NONE',  ( -1.000000000000000000, -2.775557561562890900E-016, 0.0000000000000000000 ) ) ;
#175 = VERTEX_POINT ( 'NONE', #291 ) ;
#176 = CC_DESIGN_DATE_AND_TIME_ASSIGNMENT ( #285, #124, ( #199 ) ) ;
#177 = APPROVAL_STATUS ( 'not_yet_approved' ) ;
#178 = DIRECTION ( 'NONE',  ( 1.000000000000000000, 2.775557561562890900E-016, 0.0000000000000000000 ) ) ;
#179 = PERSON ( 'UNSPECIFIED', 'UNSPECIFIED', 'UNSPECIFIED', ('UNSPECIFIED'), ('UNSPECIFIED'), ('UNSPECIFIED') ) ;
#180 = DIRECTION ( 'NONE',  ( 1.000000000000000000, 1.102182119232617800E-016, -0.0000000000000000000 ) ) ;
#181 = CARTESIAN_POINT ( 'NONE',  ( 50.00000000000000000, 50.00000000000001400, 0.0000000000000000000 ) ) ;
#182 = ORIENTED_EDGE ( 'NONE', *, *, #109, .F. ) ;
#183 = DIRECTION ( 'NONE',  ( -0.0000000000000000000, -0.0000000000000000000, -1.000000000000000000 ) ) ;
#184 = DATE_AND_TIME ( #198, #110 ) ;
#185 = ADVANCED_FACE ( 'NONE', ( #31 ), #309, .F. ) ;
#186 = VERTEX_POINT ( 'NONE', #181 ) ;
#187 = PLANE ( 'NONE',  #22 ) ;
#188 = EDGE_CURVE ( 'NONE', #186, #175, #275, .T. ) ;
#189 = APPROVAL_DATE_TIME ( #184, #256 ) ;
#190 = LINE ( 'NONE', #141, #129 ) ;
#191 = ORIENTED_EDGE ( 'NONE', *, *, #316, .T. ) ;
#192 = CARTESIAN_POINT ( 'NONE',  ( -5.510910596163089600E-015, 50.00000000000000000, 50.00000000000000000 ) ) ;
#193 = ORIENTED_EDGE ( 'NONE', *, *, #74, .F. ) ;
#194 = DIRECTION ( 'NONE',  ( -1.000000000000000000, 0.0000000000000000000, 0.0000000000000000000 ) ) ;
#195 = CC_DESIGN_PERSON_AND_ORGANIZATION_ASSIGNMENT ( #21, #281, ( #199 ) ) ;
#196 = LINE ( 'NONE', #162, #315 ) ;
#197 = VECTOR ( 'NONE', #33, 1000.000000000000000 ) ;
#198 = CALENDAR_DATE ( 2014, 12, 6 ) ;
#199 = SECURITY_CLASSIFICATION ( '', '', #268 ) ;
#200 = DIRECTION ( 'NONE',  ( 1.102182119232617800E-016, -1.000000000000000000, 0.0000000000000000000 ) ) ;
#201 = CC_DESIGN_PERSON_AND_ORGANIZATION_ASSIGNMENT ( #244, #9, ( #234 ) ) ;
#202 = APPROVAL_STATUS ( 'not_yet_approved' ) ;
#203 = CARTESIAN_POINT ( 'NONE',  ( 50.00000000000000000, 0.0000000000000000000, 0.0000000000000000000 ) ) ;
#204 = DIRECTION ( 'NONE',  ( 0.0000000000000000000, 0.0000000000000000000, 1.000000000000000000 ) ) ;
#205 = DIRECTION ( 'NONE',  ( 0.7071067811865475700, 0.7071067811865475700, -0.0000000000000000000 ) ) ;
#206 = ORIENTED_EDGE ( 'NONE', *, *, #188, .F. ) ;
#207 = CC_DESIGN_PERSON_AND_ORGANIZATION_ASSIGNMENT ( #149, #68, ( #234 ) ) ;
#208 = LINE ( 'NONE', #222, #14 ) ;
#209 = PERSON_AND_ORGANIZATION ( #179, #304 ) ;
#210 = ORIENTED_EDGE ( 'NONE', *, *, #301, .F. ) ;
#211 = CC_DESIGN_APPROVAL ( #256, ( #234 ) ) ;
#212 = ORIENTED_EDGE ( 'NONE', *, *, #120, .T. ) ;
#213 = ORIENTED_EDGE ( 'NONE', *, *, #90, .F. ) ;
#214 = ORIENTED_EDGE ( 'NONE', *, *, #90, .T. ) ;
#215 = VECTOR ( 'NONE', #293, 1000.000000000000000 ) ;
#216 = FACE_OUTER_BOUND ( 'NONE', #226, .T. ) ;
#217 = PERSON_AND_ORGANIZATION_ROLE ( 'design_owner' ) ;
#218 = ORIENTED_EDGE ( 'NONE', *, *, #88, .F. ) ;
#219 = APPROVAL_STATUS ( 'not_yet_approved' ) ;
#220 = ORIENTED_EDGE ( 'NONE', *, *, #301, .T. ) ;
#221 = ORIENTED_EDGE ( 'NONE', *, *, #81, .F. ) ;
#222 = CARTESIAN_POINT ( 'NONE',  ( 50.00000000000000000, 50.00000000000001400, 50.00000000000000000 ) ) ;
#223 = APPROVAL_PERSON_ORGANIZATION ( #26, #166, #264 ) ;
#224 = PLANE ( 'NONE',  #79 ) ;
#225 = PLANE ( 'NONE',  #296 ) ;
#226 = EDGE_LOOP ( 'NONE', ( #277, #182, #232, #265 ) ) ;
#227 = CARTESIAN_POINT ( 'NONE',  ( -5.510910596163089600E-015, 50.00000000000000000, 50.00000000000000000 ) ) ;
#228 = VERTEX_POINT ( 'NONE', #170 ) ;
#229 = ADVANCED_FACE ( 'NONE', ( #169 ), #41, .F. ) ;
#230 = ORIENTED_EDGE ( 'NONE', *, *, #42, .T. ) ;
#231 = CC_DESIGN_DATE_AND_TIME_ASSIGNMENT ( #54, #72, ( #96 ) ) ;
#232 = ORIENTED_EDGE ( 'NONE', *, *, #316, .F. ) ;
#233 = MANIFOLD_SOLID_BREP ( 'Boss-Extrude2', #127 ) ;
#234 = PRODUCT_DEFINITION_FORMATION_WITH_SPECIFIED_SOURCE ( 'ANY', '', #123, .NOT_KNOWN. ) ;
#235 = VERTEX_POINT ( 'NONE', #203 ) ;
#236 = EDGE_LOOP ( 'NONE', ( #128, #308, #77, #251 ) ) ;
#237 = FACE_OUTER_BOUND ( 'NONE', #236, .T. ) ;
#238 = VECTOR ( 'NONE', #115, 1000.000000000000000 ) ;
#239 = PLANE ( 'NONE',  #302 ) ;
#240 = CARTESIAN_POINT ( 'NONE',  ( -5.510910596163089600E-015, 50.00000000000000000, 50.00000000000000000 ) ) ;
#241 = CC_DESIGN_PERSON_AND_ORGANIZATION_ASSIGNMENT ( #11, #156, ( #96 ) ) ;
#242 = ORIENTED_EDGE ( 'NONE', *, *, #74, .T. ) ;
#243 = VECTOR ( 'NONE', #73, 1000.000000000000000 ) ;
#244 = PERSON_AND_ORGANIZATION ( #179, #304 ) ;
#245 = APPLICATION_PROTOCOL_DEFINITION ( 'international standard', 'config_control_design', 1994, #144 ) ;
#246 = CC_DESIGN_APPROVAL ( #1, ( #96 ) ) ;
#247 = APPROVAL_ROLE ( '' ) ;
#248 = CARTESIAN_POINT ( 'NONE',  ( 50.00000000000000000, 0.0000000000000000000, 50.00000000000000000 ) ) ;
#249 = CALENDAR_DATE ( 2014, 12, 6 ) ;
#250 = APPROVAL_DATE_TIME ( #62, #166 ) ;
#251 = ORIENTED_EDGE ( 'NONE', *, *, #30, .T. ) ;
#252 = ADVANCED_FACE ( 'NONE', ( #237 ), #121, .F. ) ;
#253 = COORDINATED_UNIVERSAL_TIME_OFFSET ( 7, 0, .BEHIND. ) ;
#254 = DIRECTION ( 'NONE',  ( -1.000000000000000000, 0.0000000000000000000, 0.0000000000000000000 ) ) ;
#255 = ORIENTED_EDGE ( 'NONE', *, *, #112, .T. ) ;
#256 = APPROVAL ( #202, 'UNSPECIFIED' ) ;
#257 = ORIENTED_EDGE ( 'NONE', *, *, #23, .T. ) ;
#258 = DIRECTION ( 'NONE',  ( -1.000000000000000000, -2.775557561562890900E-016, 0.0000000000000000000 ) ) ;
#259 = APPLICATION_CONTEXT ( 'configuration controlled 3d designs of mechanical parts and assemblies' ) ;
#260 = EDGE_LOOP ( 'NONE', ( #83, #221, #213 ) ) ;
#261 = PLANE ( 'NONE',  #28 ) ;
#262 = ORIENTED_EDGE ( 'NONE', *, *, #280, .F. ) ;
#263 = CARTESIAN_POINT ( 'NONE',  ( 50.00000000000000000, 0.0000000000000000000, 50.00000000000000000 ) ) ;
#264 = APPROVAL_ROLE ( '' ) ;
#265 = ORIENTED_EDGE ( 'NONE', *, *, #280, .T. ) ;
#266 = DIRECTION ( 'NONE',  ( 0.0000000000000000000, -0.0000000000000000000, 1.000000000000000000 ) ) ;
#267 = APPROVAL_PERSON_ORGANIZATION ( #209, #1, #247 ) ;
#268 = SECURITY_CLASSIFICATION_LEVEL ( 'unclassified' ) ;
#269 = DESIGN_CONTEXT ( 'detailed design', #259, 'design' ) ;
#270 = ORIENTED_EDGE ( 'NONE', *, *, #125, .T. ) ;
#271 = VERTEX_POINT ( 'NONE', #146 ) ;
#272 = DATE_AND_TIME ( #122, #44 ) ;
#273 = ADVANCED_FACE ( 'NONE', ( #60 ), #225, .F. ) ;
#274 = LINE ( 'NONE', #227, #319 ) ;
#275 = LINE ( 'NONE', #64, #311 ) ;
#276 = APPROVAL_PERSON_ORGANIZATION ( #102, #256, #284 ) ;
#277 = ORIENTED_EDGE ( 'NONE', *, *, #188, .T. ) ;
#278 = LINE ( 'NONE', #61, #13 ) ;
#279 = DIRECTION ( 'NONE',  ( 0.0000000000000000000, 1.000000000000000000, 0.0000000000000000000 ) ) ;
#280 = EDGE_CURVE ( 'NONE', #84, #186, #76, .T. ) ;
#281 = PERSON_AND_ORGANIZATION_ROLE ( 'classification_officer' ) ;
#282 = FACE_OUTER_BOUND ( 'NONE', #25, .T. ) ;
#283 = PERSON_AND_ORGANIZATION ( #179, #304 ) ;
#284 = APPROVAL_ROLE ( '' ) ;
#285 = DATE_AND_TIME ( #249, #16 ) ;
#286 = CARTESIAN_POINT ( 'NONE',  ( 50.00000000000000000, 50.00000000000001400, 50.00000000000000000 ) ) ;
#287 = DIRECTION ( 'NONE',  ( 0.0000000000000000000, 0.0000000000000000000, 1.000000000000000000 ) ) ;
#288 = AXIS2_PLACEMENT_3D ( 'NONE', #290, #38, #194 ) ;
#289 = ORIENTED_EDGE ( 'NONE', *, *, #132, .T. ) ;
#290 = CARTESIAN_POINT ( 'NONE',  ( 0.0000000000000000000, 0.0000000000000000000, 50.00000000000000000 ) ) ;
#291 = CARTESIAN_POINT ( 'NONE',  ( -5.510910596163089600E-015, 50.00000000000000000, 0.0000000000000000000 ) ) ;
#292 = ORIENTED_EDGE ( 'NONE', *, *, #88, .T. ) ;
#293 = DIRECTION ( 'NONE',  ( -0.0000000000000000000, -0.0000000000000000000, -1.000000000000000000 ) ) ;
#294 = COORDINATED_UNIVERSAL_TIME_OFFSET ( 7, 0, .BEHIND. ) ;
#295 = DIRECTION ( 'NONE',  ( -0.0000000000000000000, -0.0000000000000000000, -1.000000000000000000 ) ) ;
#296 = AXIS2_PLACEMENT_3D ( 'NONE', #147, #152, #35 ) ;
#297 = LINE ( 'NONE', #150, #3 ) ;
#298 = DIRECTION ( 'NONE',  ( 0.7071067811865474600, -0.7071067811865474600, 0.0000000000000000000 ) ) ;
#299 =( GEOMETRIC_REPRESENTATION_CONTEXT ( 3 ) GLOBAL_UNCERTAINTY_ASSIGNED_CONTEXT ( ( #87 ) ) GLOBAL_UNIT_ASSIGNED_CONTEXT ( ( #6, #317, #10 ) ) REPRESENTATION_CONTEXT ( 'NONE', 'WORKASPACE' ) );
#300 = CLOSED_SHELL ( 'NONE', ( #252, #48, #185, #161, #108 ) ) ;
#301 = EDGE_CURVE ( 'NONE', #175, #20, #297, .T. ) ;
#302 = AXIS2_PLACEMENT_3D ( 'NONE', #240, #205, #313 ) ;
#303 = ORIENTED_EDGE ( 'NONE', *, *, #112, .F. ) ;
#304 = ORGANIZATION ( 'UNSPECIFIED', 'UNSPECIFIED', '' ) ;
#305 = LINE ( 'NONE', #34, #86 ) ;
#306 = AXIS2_PLACEMENT_3D ( 'NONE', #56, #51, #47 ) ;
#307 = CARTESIAN_POINT ( 'NONE',  ( 0.0000000000000000000, 0.0000000000000000000, 0.0000000000000000000 ) ) ;
#308 = ORIENTED_EDGE ( 'NONE', *, *, #23, .F. ) ;
#309 = PLANE ( 'NONE',  #49 ) ;
#310 = ORIENTED_EDGE ( 'NONE', *, *, #109, .T. ) ;
#311 = VECTOR ( 'NONE', #174, 1000.000000000000000 ) ;
#312 = CARTESIAN_POINT ( 'NONE',  ( 0.0000000000000000000, 0.0000000000000000000, 50.00000000000000000 ) ) ;
#313 = DIRECTION ( 'NONE',  ( -0.7071067811865474600, 0.7071067811865474600, 0.0000000000000000000 ) ) ;
#314 = DIRECTION ( 'NONE',  ( -0.7071067811865474600, 0.7071067811865474600, 0.0000000000000000000 ) ) ;
#315 = VECTOR ( 'NONE', #183, 1000.000000000000000 ) ;
#316 = EDGE_CURVE ( 'NONE', #84, #116, #208, .T. ) ;
#317 =( NAMED_UNIT ( * ) PLANE_ANGLE_UNIT ( ) SI_UNIT ( $, .RADIAN. ) );
#318 = ORIENTED_EDGE ( 'NONE', *, *, #89, .T. ) ;
#319 = VECTOR ( 'NONE', #200, 1000.000000000000000 ) ;
#320 = ADVANCED_FACE ( 'NONE', ( #53 ), #239, .F. ) ;
#321 = LINE ( 'NONE', #138, #59 ) ;
ENDSEC;
END-ISO-10303-21;
