ISO-10303-21;
HEADER;
FILE_DESCRIPTION (( 'STEP AP203' ),
    '1' );
FILE_NAME ('Web Model 12450_12457.step',
    '2019-11-01T14:38:48',
    ( '' ),
    ( '' ),
    'SwSTEP 2.0',
    'SolidWorks 2018',
    '' );
FILE_SCHEMA (( 'CONFIG_CONTROL_DESIGN' ));
ENDSEC;

DATA;
#1 = PRODUCT ( 'Web Model 12450_12457', 'Web Model 12450_12457', '', ( #122 ) ) ;
#2 = APPROVAL ( #46, 'UNSPECIFIED' ) ;
#3 = APPLICATION_PROTOCOL_DEFINITION ( 'international standard', 'config_control_design', 1994, #55 ) ;
#4 = SHAPE_DEFINITION_REPRESENTATION ( #145, #158 ) ;
#5 = PERSON_AND_ORGANIZATION_ROLE ( 'classification_officer' ) ;
#6 = APPROVAL_ROLE ( '' ) ;
#7 = CARTESIAN_POINT ( 'NONE',  ( -0.8000000000000000444, 0.0000000000000000000, 0.0000000000000000000 ) ) ;
#8 = COORDINATED_UNIVERSAL_TIME_OFFSET ( 5, 0, .BEHIND. ) ;
#9 = ADVANCED_FACE ( 'NONE', ( #88 ), #65, .T. ) ;
#10 = DIRECTION ( 'NONE',  ( 1.000000000000000000, 0.0000000000000000000, 0.0000000000000000000 ) ) ;
#11 = EDGE_CURVE ( 'NONE', #25, #142, #34, .T. ) ;
#12 = CARTESIAN_POINT ( 'NONE',  ( 0.8000000000000000444, 0.0000000000000000000, 0.0000000000000000000 ) ) ;
#13 = CALENDAR_DATE ( 2019, 1, 11 ) ;
#14 = APPROVAL_PERSON_ORGANIZATION ( #170, #37, #33 ) ;
#15 = CARTESIAN_POINT ( 'NONE',  ( -0.8000000000000000444, 0.0000000000000000000, 5.000000000000000000 ) ) ;
#16 = ORIENTED_EDGE ( 'NONE', *, *, #155, .F. ) ;
#17 = EDGE_CURVE ( 'NONE', #142, #101, #54, .T. ) ;
#18 = APPROVAL_STATUS ( 'not_yet_approved' ) ;
#19 = DIRECTION ( 'NONE',  ( 1.000000000000000000, 0.0000000000000000000, 0.0000000000000000000 ) ) ;
#20 = VERTEX_POINT ( 'NONE', #167 ) ;
#21 = APPROVAL_DATE_TIME ( #140, #128 ) ;
#22 = PLANE ( 'NONE',  #92 ) ;
#23 = ORIENTED_EDGE ( 'NONE', *, *, #155, .T. ) ;
#24 = AXIS2_PLACEMENT_3D ( 'NONE', #7, #19, #70 ) ;
#25 = VERTEX_POINT ( 'NONE', #78 ) ;
#26 = EDGE_CURVE ( 'NONE', #20, #25, #50, .T. ) ;
#27 = CARTESIAN_POINT ( 'NONE',  ( -0.8000000000000000444, 0.0000000000000000000, 0.0000000000000000000 ) ) ;
#28 = MANIFOLD_SOLID_BREP ( 'Boss-Extrude1', #31 ) ;
#29 = CYLINDRICAL_SURFACE ( 'NONE', #160, 5.000000000000000000 ) ;
#30 = PERSON ( 'UNSPECIFIED', 'UNSPECIFIED', 'UNSPECIFIED', ('UNSPECIFIED'), ('UNSPECIFIED'), ('UNSPECIFIED') ) ;
#31 = CLOSED_SHELL ( 'NONE', ( #9, #108, #82, #133 ) ) ;
#32 = PERSON_AND_ORGANIZATION ( #30, #64 ) ;
#33 = APPROVAL_ROLE ( '' ) ;
#34 = LINE ( 'NONE', #47, #73 ) ;
#35 = PERSON_AND_ORGANIZATION_ROLE ( 'design_supplier' ) ;
#36 = APPLICATION_CONTEXT ( 'configuration controlled 3d designs of mechanical parts and assemblies' ) ;
#37 = APPROVAL ( #18, 'UNSPECIFIED' ) ;
#38 = UNCERTAINTY_MEASURE_WITH_UNIT (LENGTH_MEASURE( 1.000000000000000082E-05 ), #111, 'distance_accuracy_value', 'NONE');
#39 = LOCAL_TIME ( 10, 38, 48.00000000000000000, #67 ) ;
#40 = DIRECTION ( 'NONE',  ( 1.000000000000000000, 0.0000000000000000000, 0.0000000000000000000 ) ) ;
#41 = FACE_OUTER_BOUND ( 'NONE', #61, .T. ) ;
#42 = CARTESIAN_POINT ( 'NONE',  ( 0.8000000000000000444, 0.0000000000000000000, 0.0000000000000000000 ) ) ;
#43 = CC_DESIGN_APPROVAL ( #37, ( #152 ) ) ;
#44 = LOCAL_TIME ( 10, 38, 48.00000000000000000, #8 ) ;
#45 = AXIS2_PLACEMENT_3D ( 'NONE', #137, #10, #97 ) ;
#46 = APPROVAL_STATUS ( 'not_yet_approved' ) ;
#47 = CARTESIAN_POINT ( 'NONE',  ( 0.8000000000000000444, 0.0000000000000000000, 5.000000000000000000 ) ) ;
#48 = COORDINATED_UNIVERSAL_TIME_OFFSET ( 5, 0, .BEHIND. ) ;
#49 = PERSON_AND_ORGANIZATION ( #30, #64 ) ;
#50 = CIRCLE ( 'NONE', #53, 5.000000000000000000 ) ;
#51 = DIRECTION ( 'NONE',  ( 1.000000000000000000, 0.0000000000000000000, 0.0000000000000000000 ) ) ;
#52 = APPROVAL_DATE_TIME ( #114, #37 ) ;
#53 = AXIS2_PLACEMENT_3D ( 'NONE', #85, #153, #96 ) ;
#54 = CIRCLE ( 'NONE', #45, 5.000000000000000000 ) ;
#55 = APPLICATION_CONTEXT ( 'configuration controlled 3d designs of mechanical parts and assemblies' ) ;
#56 = FACE_OUTER_BOUND ( 'NONE', #141, .T. ) ;
#57 = CARTESIAN_POINT ( 'NONE',  ( -0.8000000000000000444, 6.123233995736766282E-16, -5.000000000000000000 ) ) ;
#58 = AXIS2_PLACEMENT_3D ( 'NONE', #134, #169, #135 ) ;
#59 = DESIGN_CONTEXT ( 'detailed design', #55, 'design' ) ;
#60 = AXIS2_PLACEMENT_3D ( 'NONE', #42, #146, #130 ) ;
#61 = EDGE_LOOP ( 'NONE', ( #16, #118, #68, #163 ) ) ;
#62 = AXIS2_PLACEMENT_3D ( 'NONE', #27, #40, #172 ) ;
#63 = LINE ( 'NONE', #66, #173 ) ;
#64 = ORGANIZATION ( 'UNSPECIFIED', 'UNSPECIFIED', '' ) ;
#65 = CYLINDRICAL_SURFACE ( 'NONE', #60, 5.000000000000000000 ) ;
#66 = CARTESIAN_POINT ( 'NONE',  ( 0.8000000000000000444, 6.123233995736766282E-16, -5.000000000000000000 ) ) ;
#67 = COORDINATED_UNIVERSAL_TIME_OFFSET ( 5, 0, .BEHIND. ) ;
#68 = ORIENTED_EDGE ( 'NONE', *, *, #11, .T. ) ;
#69 = DIRECTION ( 'NONE',  ( 1.000000000000000000, 0.0000000000000000000, 0.0000000000000000000 ) ) ;
#70 = DIRECTION ( 'NONE',  ( 0.0000000000000000000, 0.0000000000000000000, -1.000000000000000000 ) ) ;
#71 = DIRECTION ( 'NONE',  ( -1.000000000000000000, -0.0000000000000000000, -0.0000000000000000000 ) ) ;
#72 = CC_DESIGN_PERSON_AND_ORGANIZATION_ASSIGNMENT ( #49, #107, ( #152 ) ) ;
#73 = VECTOR ( 'NONE', #125, 1000.000000000000000 ) ;
#74 = ORIENTED_EDGE ( 'NONE', *, *, #11, .F. ) ;
#75 = CARTESIAN_POINT ( 'NONE',  ( 0.0000000000000000000, 0.0000000000000000000, 0.0000000000000000000 ) ) ;
#76 = PERSON_AND_ORGANIZATION_ROLE ( 'creator' ) ;
#77 = CALENDAR_DATE ( 2019, 1, 11 ) ;
#78 = CARTESIAN_POINT ( 'NONE',  ( 0.8000000000000000444, 0.0000000000000000000, 5.000000000000000000 ) ) ;
#79 = DATE_TIME_ROLE ( 'creation_date' ) ;
#80 = DATE_AND_TIME ( #13, #159 ) ;
#81 = DATE_AND_TIME ( #77, #105 ) ;
#82 = ADVANCED_FACE ( 'NONE', ( #110 ), #22, .T. ) ;
#83 = ORIENTED_EDGE ( 'NONE', *, *, #165, .F. ) ;
#84 = DIRECTION ( 'NONE',  ( 0.0000000000000000000, 0.0000000000000000000, 1.000000000000000000 ) ) ;
#85 = CARTESIAN_POINT ( 'NONE',  ( 0.8000000000000000444, 0.0000000000000000000, 0.0000000000000000000 ) ) ;
#86 = AXIS2_PLACEMENT_3D ( 'NONE', #75, #132, #69 ) ;
#87 = PERSON_AND_ORGANIZATION ( #30, #64 ) ;
#88 = FACE_OUTER_BOUND ( 'NONE', #174, .T. ) ;
#89 = CC_DESIGN_DATE_AND_TIME_ASSIGNMENT ( #129, #79, ( #152 ) ) ;
#90 = DATE_TIME_ROLE ( 'classification_date' ) ;
#91 = SECURITY_CLASSIFICATION_LEVEL ( 'unclassified' ) ;
#92 = AXIS2_PLACEMENT_3D ( 'NONE', #113, #51, #139 ) ;
#93 = PERSON_AND_ORGANIZATION ( #30, #64 ) ;
#94 =( NAMED_UNIT ( * ) PLANE_ANGLE_UNIT ( ) SI_UNIT ( $, .RADIAN. ) );
#95 = PERSON_AND_ORGANIZATION ( #30, #64 ) ;
#96 = DIRECTION ( 'NONE',  ( 0.0000000000000000000, 0.0000000000000000000, -1.000000000000000000 ) ) ;
#97 = DIRECTION ( 'NONE',  ( 0.0000000000000000000, 0.0000000000000000000, -1.000000000000000000 ) ) ;
#98 = CIRCLE ( 'NONE', #24, 5.000000000000000000 ) ;
#99 = PRODUCT_DEFINITION_FORMATION_WITH_SPECIFIED_SOURCE ( 'ANY', '', #1, .NOT_KNOWN. ) ;
#100 = PERSON_AND_ORGANIZATION ( #30, #64 ) ;
#101 = VERTEX_POINT ( 'NONE', #57 ) ;
#102 = PERSON_AND_ORGANIZATION ( #30, #64 ) ;
#103 = PLANE ( 'NONE',  #62 ) ;
#104 = PRODUCT_RELATED_PRODUCT_CATEGORY ( 'detail', '', ( #1 ) ) ;
#105 = LOCAL_TIME ( 10, 38, 48.00000000000000000, #136 ) ;
#106 = ORIENTED_EDGE ( 'NONE', *, *, #17, .F. ) ;
#107 = PERSON_AND_ORGANIZATION_ROLE ( 'creator' ) ;
#108 = ADVANCED_FACE ( 'NONE', ( #41 ), #29, .T. ) ;
#109 = CIRCLE ( 'NONE', #58, 5.000000000000000000 ) ;
#110 = FACE_OUTER_BOUND ( 'NONE', #120, .T. ) ;
#111 =( LENGTH_UNIT ( ) NAMED_UNIT ( * ) SI_UNIT ( .MILLI., .METRE. ) );
#112 = CC_DESIGN_PERSON_AND_ORGANIZATION_ASSIGNMENT ( #95, #76, ( #99 ) ) ;
#113 = CARTESIAN_POINT ( 'NONE',  ( 0.8000000000000000444, 0.0000000000000000000, 0.0000000000000000000 ) ) ;
#114 = DATE_AND_TIME ( #151, #39 ) ;
#115 = ORIENTED_EDGE ( 'NONE', *, *, #175, .T. ) ;
#116 = ORIENTED_EDGE ( 'NONE', *, *, #26, .F. ) ;
#117 = COORDINATED_UNIVERSAL_TIME_OFFSET ( 5, 0, .BEHIND. ) ;
#118 = ORIENTED_EDGE ( 'NONE', *, *, #175, .F. ) ;
#119 = CC_DESIGN_PERSON_AND_ORGANIZATION_ASSIGNMENT ( #32, #35, ( #99 ) ) ;
#120 = EDGE_LOOP ( 'NONE', ( #115, #127 ) ) ;
#121 = APPROVAL_STATUS ( 'not_yet_approved' ) ;
#122 = MECHANICAL_CONTEXT ( 'NONE', #36, 'mechanical' ) ;
#123 = LOCAL_TIME ( 10, 38, 48.00000000000000000, #117 ) ;
#124 = CALENDAR_DATE ( 2019, 1, 11 ) ;
#125 = DIRECTION ( 'NONE',  ( -1.000000000000000000, -0.0000000000000000000, -0.0000000000000000000 ) ) ;
#126 = APPROVAL_PERSON_ORGANIZATION ( #93, #128, #147 ) ;
#127 = ORIENTED_EDGE ( 'NONE', *, *, #26, .T. ) ;
#128 = APPROVAL ( #121, 'UNSPECIFIED' ) ;
#129 = DATE_AND_TIME ( #124, #44 ) ;
#130 = DIRECTION ( 'NONE',  ( 0.0000000000000000000, 0.0000000000000000000, 1.000000000000000000 ) ) ;
#131 = CC_DESIGN_PERSON_AND_ORGANIZATION_ASSIGNMENT ( #102, #166, ( #1 ) ) ;
#132 = DIRECTION ( 'NONE',  ( 0.0000000000000000000, 0.0000000000000000000, 1.000000000000000000 ) ) ;
#133 = ADVANCED_FACE ( 'NONE', ( #56 ), #103, .F. ) ;
#134 = CARTESIAN_POINT ( 'NONE',  ( 0.8000000000000000444, 0.0000000000000000000, 0.0000000000000000000 ) ) ;
#135 = DIRECTION ( 'NONE',  ( 0.0000000000000000000, 0.0000000000000000000, -1.000000000000000000 ) ) ;
#136 = COORDINATED_UNIVERSAL_TIME_OFFSET ( 5, 0, .BEHIND. ) ;
#137 = CARTESIAN_POINT ( 'NONE',  ( -0.8000000000000000444, 0.0000000000000000000, 0.0000000000000000000 ) ) ;
#138 = CC_DESIGN_APPROVAL ( #128, ( #99 ) ) ;
#139 = DIRECTION ( 'NONE',  ( 0.0000000000000000000, 0.0000000000000000000, -1.000000000000000000 ) ) ;
#140 = DATE_AND_TIME ( #154, #123 ) ;
#141 = EDGE_LOOP ( 'NONE', ( #106, #83 ) ) ;
#142 = VERTEX_POINT ( 'NONE', #15 ) ;
#143 = APPROVAL_DATE_TIME ( #80, #2 ) ;
#144 =( GEOMETRIC_REPRESENTATION_CONTEXT ( 3 ) GLOBAL_UNCERTAINTY_ASSIGNED_CONTEXT ( ( #38 ) ) GLOBAL_UNIT_ASSIGNED_CONTEXT ( ( #111, #94, #150 ) ) REPRESENTATION_CONTEXT ( 'NONE', 'WORKASPACE' ) );
#145 = PRODUCT_DEFINITION_SHAPE ( 'NONE', 'NONE',  #152 ) ;
#146 = DIRECTION ( 'NONE',  ( -1.000000000000000000, -0.0000000000000000000, -0.0000000000000000000 ) ) ;
#147 = APPROVAL_ROLE ( '' ) ;
#148 = SECURITY_CLASSIFICATION ( '', '', #91 ) ;
#149 = DIRECTION ( 'NONE',  ( -1.000000000000000000, -0.0000000000000000000, -0.0000000000000000000 ) ) ;
#150 =( NAMED_UNIT ( * ) SI_UNIT ( $, .STERADIAN. ) SOLID_ANGLE_UNIT ( ) );
#151 = CALENDAR_DATE ( 2019, 1, 11 ) ;
#152 = PRODUCT_DEFINITION ( 'UNKNOWN', '', #99, #59 ) ;
#153 = DIRECTION ( 'NONE',  ( 1.000000000000000000, 0.0000000000000000000, 0.0000000000000000000 ) ) ;
#154 = CALENDAR_DATE ( 2019, 1, 11 ) ;
#155 = EDGE_CURVE ( 'NONE', #20, #101, #63, .T. ) ;
#156 = CC_DESIGN_APPROVAL ( #2, ( #148 ) ) ;
#157 = ORIENTED_EDGE ( 'NONE', *, *, #165, .T. ) ;
#158 = ADVANCED_BREP_SHAPE_REPRESENTATION ( 'Web Model 12450_12457', ( #28, #86 ), #144 ) ;
#159 = LOCAL_TIME ( 10, 38, 48.00000000000000000, #48 ) ;
#160 = AXIS2_PLACEMENT_3D ( 'NONE', #12, #71, #84 ) ;
#161 = CC_DESIGN_SECURITY_CLASSIFICATION ( #148, ( #99 ) ) ;
#162 = APPROVAL_PERSON_ORGANIZATION ( #87, #2, #6 ) ;
#163 = ORIENTED_EDGE ( 'NONE', *, *, #17, .T. ) ;
#164 = CC_DESIGN_PERSON_AND_ORGANIZATION_ASSIGNMENT ( #100, #5, ( #148 ) ) ;
#165 = EDGE_CURVE ( 'NONE', #101, #142, #98, .T. ) ;
#166 = PERSON_AND_ORGANIZATION_ROLE ( 'design_owner' ) ;
#167 = CARTESIAN_POINT ( 'NONE',  ( 0.8000000000000000444, 6.123233995736766282E-16, -5.000000000000000000 ) ) ;
#168 = APPLICATION_PROTOCOL_DEFINITION ( 'international standard', 'config_control_design', 1994, #36 ) ;
#169 = DIRECTION ( 'NONE',  ( 1.000000000000000000, 0.0000000000000000000, 0.0000000000000000000 ) ) ;
#170 = PERSON_AND_ORGANIZATION ( #30, #64 ) ;
#171 = CC_DESIGN_DATE_AND_TIME_ASSIGNMENT ( #81, #90, ( #148 ) ) ;
#172 = DIRECTION ( 'NONE',  ( 0.0000000000000000000, 0.0000000000000000000, -1.000000000000000000 ) ) ;
#173 = VECTOR ( 'NONE', #149, 1000.000000000000000 ) ;
#174 = EDGE_LOOP ( 'NONE', ( #116, #23, #157, #74 ) ) ;
#175 = EDGE_CURVE ( 'NONE', #25, #20, #109, .T. ) ;
ENDSEC;
END-ISO-10303-21;
