ISO-10303-21;
HEADER;
FILE_DESCRIPTION (( 'STEP AP203' ),
    '1' );
FILE_NAME ('Web Model 48921_16011.step',
    '2020-10-21T18:34:57',
    ( '' ),
    ( '' ),
    'SwSTEP 2.0',
    'SolidWorks 2018',
    '' );
FILE_SCHEMA (( 'CONFIG_CONTROL_DESIGN' ));
ENDSEC;

DATA;
#1 = CIRCLE ( 'NONE', #73, 20.00000000000000000 ) ;
#2 = CC_DESIGN_PERSON_AND_ORGANIZATION_ASSIGNMENT ( #42, #70, ( #89 ) ) ;
#3 =( NAMED_UNIT ( * ) SI_UNIT ( $, .STERADIAN. ) SOLID_ANGLE_UNIT ( ) );
#4 = DIRECTION ( 'NONE',  ( 1.000000000000000000, 0.0000000000000000000, 0.0000000000000000000 ) ) ;
#5 = CYLINDRICAL_SURFACE ( 'NONE', #63, 20.00000000000000000 ) ;
#6 = PERSON_AND_ORGANIZATION_ROLE ( 'creator' ) ;
#7 = DIRECTION ( 'NONE',  ( 0.0000000000000000000, 0.0000000000000000000, 1.000000000000000000 ) ) ;
#8 = PLANE ( 'NONE',  #163 ) ;
#9 = LOCAL_TIME ( 14, 34, 57.00000000000000000, #148 ) ;
#10 = PRODUCT ( 'Web Model 48921_16011', 'Web Model 48921_16011', '', ( #136 ) ) ;
#11 = SHAPE_DEFINITION_REPRESENTATION ( #84, #132 ) ;
#12 = AXIS2_PLACEMENT_3D ( 'NONE', #154, #7, #160 ) ;
#13 = APPROVAL_DATE_TIME ( #76, #175 ) ;
#14 = ORGANIZATION ( 'UNSPECIFIED', 'UNSPECIFIED', '' ) ;
#15 = DATE_TIME_ROLE ( 'classification_date' ) ;
#16 =( NAMED_UNIT ( * ) PLANE_ANGLE_UNIT ( ) SI_UNIT ( $, .RADIAN. ) );
#17 = CALENDAR_DATE ( 2020, 21, 10 ) ;
#18 = CIRCLE ( 'NONE', #12, 20.00000000000000000 ) ;
#19 = CARTESIAN_POINT ( 'NONE',  ( 0.0000000000000000000, 0.0000000000000000000, 0.0000000000000000000 ) ) ;
#20 = ORIENTED_EDGE ( 'NONE', *, *, #72, .T. ) ;
#21 = MANIFOLD_SOLID_BREP ( 'Boss-Extrude1', #105 ) ;
#22 = PERSON ( 'UNSPECIFIED', 'UNSPECIFIED', 'UNSPECIFIED', ('UNSPECIFIED'), ('UNSPECIFIED'), ('UNSPECIFIED') ) ;
#23 = COORDINATED_UNIVERSAL_TIME_OFFSET ( 5, 0, .BEHIND. ) ;
#24 = ORIENTED_EDGE ( 'NONE', *, *, #55, .F. ) ;
#25 = COORDINATED_UNIVERSAL_TIME_OFFSET ( 5, 0, .BEHIND. ) ;
#26 = EDGE_CURVE ( 'NONE', #153, #28, #143, .T. ) ;
#27 =( GEOMETRIC_REPRESENTATION_CONTEXT ( 3 ) GLOBAL_UNCERTAINTY_ASSIGNED_CONTEXT ( ( #149 ) ) GLOBAL_UNIT_ASSIGNED_CONTEXT ( ( #165, #16, #3 ) ) REPRESENTATION_CONTEXT ( 'NONE', 'WORKASPACE' ) );
#28 = VERTEX_POINT ( 'NONE', #125 ) ;
#29 = LOCAL_TIME ( 14, 34, 57.00000000000000000, #67 ) ;
#30 = APPLICATION_PROTOCOL_DEFINITION ( 'international standard', 'config_control_design', 1994, #94 ) ;
#31 = FACE_OUTER_BOUND ( 'NONE', #140, .T. ) ;
#32 = APPROVAL_STATUS ( 'not_yet_approved' ) ;
#33 = ADVANCED_FACE ( 'NONE', ( #53 ), #8, .T. ) ;
#34 = APPROVAL_DATE_TIME ( #91, #134 ) ;
#35 = DIRECTION ( 'NONE',  ( -0.0000000000000000000, -0.0000000000000000000, -1.000000000000000000 ) ) ;
#36 = DIRECTION ( 'NONE',  ( -0.0000000000000000000, -0.0000000000000000000, -1.000000000000000000 ) ) ;
#37 = CARTESIAN_POINT ( 'NONE',  ( 0.0000000000000000000, 0.0000000000000000000, 2.000000000000000000 ) ) ;
#38 = EDGE_CURVE ( 'NONE', #28, #79, #85, .T. ) ;
#39 = ORIENTED_EDGE ( 'NONE', *, *, #65, .F. ) ;
#40 = AXIS2_PLACEMENT_3D ( 'NONE', #54, #108, #4 ) ;
#41 = EDGE_LOOP ( 'NONE', ( #119, #142 ) ) ;
#42 = PERSON_AND_ORGANIZATION ( #22, #14 ) ;
#43 = PERSON_AND_ORGANIZATION_ROLE ( 'creator' ) ;
#44 = DATE_TIME_ROLE ( 'creation_date' ) ;
#45 = DIRECTION ( 'NONE',  ( -1.000000000000000000, 0.0000000000000000000, 0.0000000000000000000 ) ) ;
#46 = PERSON_AND_ORGANIZATION ( #22, #14 ) ;
#47 = DIRECTION ( 'NONE',  ( 1.000000000000000000, 0.0000000000000000000, 0.0000000000000000000 ) ) ;
#48 = CYLINDRICAL_SURFACE ( 'NONE', #82, 20.00000000000000000 ) ;
#49 = ADVANCED_FACE ( 'NONE', ( #90 ), #5, .T. ) ;
#50 = CALENDAR_DATE ( 2020, 21, 10 ) ;
#51 = ORIENTED_EDGE ( 'NONE', *, *, #38, .T. ) ;
#52 = CC_DESIGN_PERSON_AND_ORGANIZATION_ASSIGNMENT ( #64, #96, ( #109 ) ) ;
#53 = FACE_OUTER_BOUND ( 'NONE', #74, .T. ) ;
#54 = CARTESIAN_POINT ( 'NONE',  ( 0.0000000000000000000, 0.0000000000000000000, 0.0000000000000000000 ) ) ;
#55 = EDGE_CURVE ( 'NONE', #97, #79, #130, .T. ) ;
#56 = APPLICATION_PROTOCOL_DEFINITION ( 'international standard', 'config_control_design', 1994, #68 ) ;
#57 = LOCAL_TIME ( 14, 34, 57.00000000000000000, #23 ) ;
#58 = ORIENTED_EDGE ( 'NONE', *, *, #72, .F. ) ;
#59 = CARTESIAN_POINT ( 'NONE',  ( -20.00000000000000000, 0.0000000000000000000, 0.0000000000000000000 ) ) ;
#60 = CARTESIAN_POINT ( 'NONE',  ( 20.00000000000000000, 2.449293598294706513E-15, 2.000000000000000000 ) ) ;
#61 = DIRECTION ( 'NONE',  ( 1.000000000000000000, 0.0000000000000000000, 0.0000000000000000000 ) ) ;
#62 = PERSON_AND_ORGANIZATION ( #22, #14 ) ;
#63 = AXIS2_PLACEMENT_3D ( 'NONE', #141, #36, #45 ) ;
#64 = PERSON_AND_ORGANIZATION ( #22, #14 ) ;
#65 = EDGE_CURVE ( 'NONE', #153, #97, #162, .T. ) ;
#66 = VECTOR ( 'NONE', #86, 1000.000000000000000 ) ;
#67 = COORDINATED_UNIVERSAL_TIME_OFFSET ( 5, 0, .BEHIND. ) ;
#68 = APPLICATION_CONTEXT ( 'configuration controlled 3d designs of mechanical parts and assemblies' ) ;
#69 = ORIENTED_EDGE ( 'NONE', *, *, #81, .T. ) ;
#70 = PERSON_AND_ORGANIZATION_ROLE ( 'classification_officer' ) ;
#71 = CARTESIAN_POINT ( 'NONE',  ( 0.0000000000000000000, 0.0000000000000000000, 2.000000000000000000 ) ) ;
#72 = EDGE_CURVE ( 'NONE', #97, #153, #1, .T. ) ;
#73 = AXIS2_PLACEMENT_3D ( 'NONE', #37, #128, #47 ) ;
#74 = EDGE_LOOP ( 'NONE', ( #20, #159 ) ) ;
#75 = DESIGN_CONTEXT ( 'detailed design', #68, 'design' ) ;
#76 = DATE_AND_TIME ( #78, #113 ) ;
#77 = CC_DESIGN_PERSON_AND_ORGANIZATION_ASSIGNMENT ( #120, #6, ( #144 ) ) ;
#78 = CALENDAR_DATE ( 2020, 21, 10 ) ;
#79 = VERTEX_POINT ( 'NONE', #59 ) ;
#80 = APPROVAL_ROLE ( '' ) ;
#81 = EDGE_CURVE ( 'NONE', #79, #28, #18, .T. ) ;
#82 = AXIS2_PLACEMENT_3D ( 'NONE', #71, #102, #111 ) ;
#83 = APPROVAL_ROLE ( '' ) ;
#84 = PRODUCT_DEFINITION_SHAPE ( 'NONE', 'NONE',  #144 ) ;
#85 = CIRCLE ( 'NONE', #98, 20.00000000000000000 ) ;
#86 = DIRECTION ( 'NONE',  ( -0.0000000000000000000, -0.0000000000000000000, -1.000000000000000000 ) ) ;
#87 = PERSON_AND_ORGANIZATION ( #22, #14 ) ;
#88 = DATE_AND_TIME ( #17, #57 ) ;
#89 = SECURITY_CLASSIFICATION ( '', '', #139 ) ;
#90 = FACE_OUTER_BOUND ( 'NONE', #121, .T. ) ;
#91 = DATE_AND_TIME ( #161, #29 ) ;
#92 = VECTOR ( 'NONE', #35, 1000.000000000000000 ) ;
#93 = APPROVAL_PERSON_ORGANIZATION ( #156, #134, #110 ) ;
#94 = APPLICATION_CONTEXT ( 'configuration controlled 3d designs of mechanical parts and assemblies' ) ;
#95 = APPROVAL_DATE_TIME ( #88, #129 ) ;
#96 = PERSON_AND_ORGANIZATION_ROLE ( 'design_supplier' ) ;
#97 = VERTEX_POINT ( 'NONE', #114 ) ;
#98 = AXIS2_PLACEMENT_3D ( 'NONE', #19, #126, #61 ) ;
#99 = PERSON_AND_ORGANIZATION ( #22, #14 ) ;
#100 = CARTESIAN_POINT ( 'NONE',  ( 0.0000000000000000000, 0.0000000000000000000, 2.000000000000000000 ) ) ;
#101 = DIRECTION ( 'NONE',  ( 1.000000000000000000, 0.0000000000000000000, -0.0000000000000000000 ) ) ;
#102 = DIRECTION ( 'NONE',  ( -0.0000000000000000000, -0.0000000000000000000, -1.000000000000000000 ) ) ;
#103 = AXIS2_PLACEMENT_3D ( 'NONE', #166, #123, #151 ) ;
#104 = ORIENTED_EDGE ( 'NONE', *, *, #55, .T. ) ;
#105 = CLOSED_SHELL ( 'NONE', ( #127, #49, #33, #170 ) ) ;
#106 = CC_DESIGN_PERSON_AND_ORGANIZATION_ASSIGNMENT ( #46, #43, ( #109 ) ) ;
#107 = APPROVAL_PERSON_ORGANIZATION ( #99, #175, #83 ) ;
#108 = DIRECTION ( 'NONE',  ( 0.0000000000000000000, 0.0000000000000000000, 1.000000000000000000 ) ) ;
#109 = PRODUCT_DEFINITION_FORMATION_WITH_SPECIFIED_SOURCE ( 'ANY', '', #10, .NOT_KNOWN. ) ;
#110 = APPROVAL_ROLE ( '' ) ;
#111 = DIRECTION ( 'NONE',  ( -1.000000000000000000, 0.0000000000000000000, 0.0000000000000000000 ) ) ;
#112 = DIRECTION ( 'NONE',  ( 1.000000000000000000, 0.0000000000000000000, 0.0000000000000000000 ) ) ;
#113 = LOCAL_TIME ( 14, 34, 57.00000000000000000, #117 ) ;
#114 = CARTESIAN_POINT ( 'NONE',  ( -20.00000000000000000, 0.0000000000000000000, 2.000000000000000000 ) ) ;
#115 = CC_DESIGN_APPROVAL ( #129, ( #89 ) ) ;
#116 = APPROVAL_PERSON_ORGANIZATION ( #62, #129, #80 ) ;
#117 = COORDINATED_UNIVERSAL_TIME_OFFSET ( 5, 0, .BEHIND. ) ;
#118 = CC_DESIGN_DATE_AND_TIME_ASSIGNMENT ( #131, #15, ( #89 ) ) ;
#119 = ORIENTED_EDGE ( 'NONE', *, *, #81, .F. ) ;
#120 = PERSON_AND_ORGANIZATION ( #22, #14 ) ;
#121 = EDGE_LOOP ( 'NONE', ( #169, #58, #104, #69 ) ) ;
#122 = PERSON_AND_ORGANIZATION_ROLE ( 'design_owner' ) ;
#123 = DIRECTION ( 'NONE',  ( 0.0000000000000000000, 0.0000000000000000000, 1.000000000000000000 ) ) ;
#124 = CC_DESIGN_PERSON_AND_ORGANIZATION_ASSIGNMENT ( #87, #122, ( #10 ) ) ;
#125 = CARTESIAN_POINT ( 'NONE',  ( 20.00000000000000000, 2.449293598294706513E-15, 0.0000000000000000000 ) ) ;
#126 = DIRECTION ( 'NONE',  ( 0.0000000000000000000, 0.0000000000000000000, 1.000000000000000000 ) ) ;
#127 = ADVANCED_FACE ( 'NONE', ( #31 ), #48, .T. ) ;
#128 = DIRECTION ( 'NONE',  ( 0.0000000000000000000, 0.0000000000000000000, 1.000000000000000000 ) ) ;
#129 = APPROVAL ( #168, 'UNSPECIFIED' ) ;
#130 = LINE ( 'NONE', #173, #66 ) ;
#131 = DATE_AND_TIME ( #171, #146 ) ;
#132 = ADVANCED_BREP_SHAPE_REPRESENTATION ( 'Web Model 48921_16011', ( #21, #40 ), #27 ) ;
#133 = ORIENTED_EDGE ( 'NONE', *, *, #26, .T. ) ;
#134 = APPROVAL ( #32, 'UNSPECIFIED' ) ;
#135 = DATE_AND_TIME ( #50, #9 ) ;
#136 = MECHANICAL_CONTEXT ( 'NONE', #94, 'mechanical' ) ;
#137 = APPROVAL_STATUS ( 'not_yet_approved' ) ;
#138 = CC_DESIGN_APPROVAL ( #175, ( #109 ) ) ;
#139 = SECURITY_CLASSIFICATION_LEVEL ( 'unclassified' ) ;
#140 = EDGE_LOOP ( 'NONE', ( #39, #133, #51, #24 ) ) ;
#141 = CARTESIAN_POINT ( 'NONE',  ( 0.0000000000000000000, 0.0000000000000000000, 2.000000000000000000 ) ) ;
#142 = ORIENTED_EDGE ( 'NONE', *, *, #38, .F. ) ;
#143 = LINE ( 'NONE', #60, #92 ) ;
#144 = PRODUCT_DEFINITION ( 'UNKNOWN', '', #109, #75 ) ;
#145 = CARTESIAN_POINT ( 'NONE',  ( 20.00000000000000000, 2.449293598294706513E-15, 2.000000000000000000 ) ) ;
#146 = LOCAL_TIME ( 14, 34, 57.00000000000000000, #25 ) ;
#147 = CC_DESIGN_SECURITY_CLASSIFICATION ( #89, ( #109 ) ) ;
#148 = COORDINATED_UNIVERSAL_TIME_OFFSET ( 5, 0, .BEHIND. ) ;
#149 = UNCERTAINTY_MEASURE_WITH_UNIT (LENGTH_MEASURE( 1.000000000000000082E-05 ), #165, 'distance_accuracy_value', 'NONE');
#150 = PLANE ( 'NONE',  #103 ) ;
#151 = DIRECTION ( 'NONE',  ( 1.000000000000000000, 0.0000000000000000000, -0.0000000000000000000 ) ) ;
#152 = CC_DESIGN_APPROVAL ( #134, ( #144 ) ) ;
#153 = VERTEX_POINT ( 'NONE', #145 ) ;
#154 = CARTESIAN_POINT ( 'NONE',  ( 0.0000000000000000000, 0.0000000000000000000, 0.0000000000000000000 ) ) ;
#155 = CARTESIAN_POINT ( 'NONE',  ( 0.0000000000000000000, 0.0000000000000000000, 2.000000000000000000 ) ) ;
#156 = PERSON_AND_ORGANIZATION ( #22, #14 ) ;
#157 = DIRECTION ( 'NONE',  ( 0.0000000000000000000, 0.0000000000000000000, 1.000000000000000000 ) ) ;
#158 = PRODUCT_RELATED_PRODUCT_CATEGORY ( 'detail', '', ( #10 ) ) ;
#159 = ORIENTED_EDGE ( 'NONE', *, *, #65, .T. ) ;
#160 = DIRECTION ( 'NONE',  ( 1.000000000000000000, 0.0000000000000000000, 0.0000000000000000000 ) ) ;
#161 = CALENDAR_DATE ( 2020, 21, 10 ) ;
#162 = CIRCLE ( 'NONE', #167, 20.00000000000000000 ) ;
#163 = AXIS2_PLACEMENT_3D ( 'NONE', #100, #157, #101 ) ;
#164 = CC_DESIGN_DATE_AND_TIME_ASSIGNMENT ( #135, #44, ( #144 ) ) ;
#165 =( LENGTH_UNIT ( ) NAMED_UNIT ( * ) SI_UNIT ( .MILLI., .METRE. ) );
#166 = CARTESIAN_POINT ( 'NONE',  ( 0.0000000000000000000, 0.0000000000000000000, 0.0000000000000000000 ) ) ;
#167 = AXIS2_PLACEMENT_3D ( 'NONE', #155, #172, #112 ) ;
#168 = APPROVAL_STATUS ( 'not_yet_approved' ) ;
#169 = ORIENTED_EDGE ( 'NONE', *, *, #26, .F. ) ;
#170 = ADVANCED_FACE ( 'NONE', ( #174 ), #150, .F. ) ;
#171 = CALENDAR_DATE ( 2020, 21, 10 ) ;
#172 = DIRECTION ( 'NONE',  ( 0.0000000000000000000, 0.0000000000000000000, 1.000000000000000000 ) ) ;
#173 = CARTESIAN_POINT ( 'NONE',  ( -20.00000000000000000, 0.0000000000000000000, 2.000000000000000000 ) ) ;
#174 = FACE_OUTER_BOUND ( 'NONE', #41, .T. ) ;
#175 = APPROVAL ( #137, 'UNSPECIFIED' ) ;
ENDSEC;
END-ISO-10303-21;
